PrimaNota.ru - самый крупный в мире бесплатный архив песенных текстов, аккордов, табулатур и нот


Adrian Legg - Ghosts In The Hills - таба, видео

Регистрация Запомнить меня
Войти через:  Facebook Google Twitter Vk Yandex Mail.ru

Adrian Legg - Ghosts In The Hills - таба, видео

Печатать
Просмотров: 82
Artist: Adrian Legg
Track title: Ghosts in the Hills
Album: Guitar Bones
 
Any comments welcome at:  james_calton@yahoo.com
 
This tab is an amended version of my original tab for
this track. It contains corrections in the intro/outro,
and Sections A, C, D and E Also please note a tiny
alteration: towards the end of each of my sections I
have changed one of the 5th string bass notes to the 6th
string, as this seems more like what he is playing on
the recording. (Compare my first tab.)
I was inspired to make these alterations after seeing
Adrian play live in Hartlepool in September, and noting
that he was playing higher up the neck in parts that
I had in first position.
However, I am still a little unsure as to the accuracy
of this tab. I have difficulty fitting the bass notes
to the quick runs he does.
 
Notes:
 
The track begins in DGDGBE until Adrian downtunes the
1st string to D From there it is in DGDGBD(open G)
until he tunes back up to the E near the end. He later
tunes back down to D I have pointed this out above the
relevant parts. Also, he is using a capo at the 5th fret.
    h = hammer-on
    p = pull-off
    b = bend
    / = slide up to note
    \ = slide down to note
    ha = harmonics
 
  
E|-----------------------------------------------------|
B|------0------2-/-3---5---3---5---7---8---10---7------|
G|------0------0---------------------------------------|
D|------0------1-/-4---5---4---5---7---9--------7------|
G|--0--------------------------------------------------|
D|-----------------------------------------------------|
 

|---8---8---5-------------------------------------------|
|---------------7-p-5--------5---------------3---3------|
|-----------------------7----5-------------------2------|
|----------------------------5-------------------0---0--|
|--------------------------------0---0---0--------------|
|-------------------------------------------------------|
 
 
|------------------------------------|
|---0---------------0----------------|
|---0-------5-------0-------2--------|
|---2-------5-------0-------4--------|
|-----------5------------------------|
|-------2-------5-------0-------0----|
 
 
|----0-------2-p-0---0-------2-p-0---0---2---3---------|
|----0---------------0---------------0-----------------|
|*-----------------------------------------------0-----|
|*---2---2-----------1---1-----------0---0-------------|
|------------------------------------------------6-----|
|------------------------------------------------------|
 
 
|---------------------------------------0----------------|
|---------------------------0---3---5---0---3---0--------|
|-------0-------2-p-0---0-----------------------0---2---*|
|-----------------------0---------------------------4---*|
|---5-------5-----------4-------4-------2-------0--------|
|---------------------------------------------------0----|
 
 
|--------------------------------------------------------|
|-----------0---1---3---5-/-7---3-\-1---1---0------------|
|---0---2---0-----------------------------------2---0----|
|---2---4---0---2---4---5-/-7---4-\-2---2---0---4---2----|
|--------------------------------------------------------|
|-------0---------------0-------0-------0----------------|
 
 
|---------------------0-------2-p-0---0-------2-p-0----|
|---------------------0---------------0----------------|
|------------------------------------------------------|
|---4---2---2---0-----2---2-----------1---1------------|
|---5---0---0---2--------------------------------------|
|------------------------------------------------------|
 
 
|---0---2---3------------------------------------------|
|---0--------------------------------------------------|
|---------------0------------0----------------0--------|
|---0---0----------------0-------0--------0-------0----|
|---------------6----5----------------3----------------|
|------------------------------------------------------|
 
 
|----------------------------------------------------|
|---------------------1-p-0--------0---1----0---0----|
|-----------0------------------2------------0---0----|
|-------0-------0-----2-p-0----4---0---2----0---0----|
|---2---------------------------------------0--------|
|---------------------0--------0-------0-------------|
 

tune bracketed note down to D
 
|---------------(0)------------------------------------|
|---1-/-3---0---------0---1-/-3---5---3---1-/-3---0----|
|---0-------0---------0---0-------0-------0-------0----|
|---2-/-4---0---------0---2-/-4---5---4---2-/-4---0----|
|---0-------0---------0-----------0-------0-------0----|
|------------------------------------------------------|
 
 
|--b-4-------0-------------------------------------------|
|--------5-----------0----------------------------ha-12--|
|----------------5-----------0--------------------ha-12--|
|------------------------7------------0-----------ha-12--|
|-------------------------------/-9-------4---0---ha-12--|
|--------------------------------------------------------|
 
 
|--------------------|
|---0---1-/-3---0----|
|---0---0-------0----|
|---0---2-/-4---0----|
|---0-----------0----|
|--------------------|
 

Section A:
 
D|-------0------------|------------------|------------------|
B|--6p5-------0-------|----------------0-|------0-----------|
G|*---------5-------0-|--------0--2h4----|-2h4-----2p0------|
D|*--------------7----|-0h2h4------------|--------------2p0-|
G|--0-----------------|-0----------------|-0----------------|
D|----------0---------|-----------0------|---------0--------|
 
 
|----------------0-|-----0-----------|----------------0-|
|------------------|-6p5------0------|------------------|
|-------0h2-4h5----|--------5------0-|--------0--2h4----|
|--0h3-------------|-------------7---|-0h2h4------------|
|--0---------------|-0---------------|-0----------------|
|-----------0------|--------0--------|-----------0------|
 
 
|----------------0-|----0-----0----|
|------------------|----0-----0----|
|-------0h2-4h5----|-0--------0---*|
|--0h4-------------|--------------*|
|------------------|---------------|
|--0--------0------|-------0-------|
 
 
Section B:
 
|--------------------|------------------|----------------0-|
|------------------0-|------0-----------|------------------|
|*---------0--2h4----|-2h4-----2p0------|--------0--2h4----|
|*--0h2h4------------|--------------2p0-|-0h2h4------------|
|---0----------------|-0----------------|-0----------------|
|-------------0------|---------0--------|-----------0------|
 
 
|-----------------0-|----------------0----|---------------|
|-------------------|-------------------0-|-5p3-----------|
|-------0h2--4h5----|--------0--2h4-------|-----2---4p2p0-|
|--0h3--------------|-0h2h4---------------|---------------|
|--0----------------|-0-------------------|-0-------------|
|------------0------|-----------0---------|---------0-----|
 

|-----------------0-|----0------0----|
|-------------------|----0------0----|
|-------0h2--4h5----|-0---------0---*|
|--0h4--------------|---------------*|
|-------------------|----------------|
|--0---------0------|--------0-------|
 

Section C:
 
|--------0----------|------------------|------------------|
|---8p6------0------|----------------0-|------0-----------|
|*---------5-----0--|--------0--2h4----|-2h4-----2p0------|
|*-------------7----|-0h2h4------------|--------------2p0-|
|---0---------------|-0----------------|-0----------------|
|----------0--------|-----------0------|---------0--------|
 

|------------------|-----0-----------|----------------0-|
|----------------0-|-8p6------0------|------------------|
|------0h2--4h5----|--------5-----0--|--------0--2h4----|
|-0h3--------------|------------7----|-0h2h4------------|
|-0----------------|-0---------------|-0----------------|
|-----------0------|--------0--------|-----------0------|
 

|----------------0-|----0-----0----|
|------------------|----0-----0----|
|------0h2--4h5----|-0--------0---*| 
|-0h4--------------|--------------*| 
|------------------|---------------|  repeat Section B,
|-0---------0------|-------0-------|  then:
 

Section D:
 
|---5--------5-------|-5---------------|-3--------3-------|
|-----6---6----6---6-|---6------0------|---5---5----5---5-|
|*------7--------7---|-----7--5------0-|-----7--------7---|
|*-------------------|-------------7---|------------------|
|---0----------------|-0---------------|-0----------------|
|------------0-------|--------0--------|----------0-------|
 

|--3---------------|-5--------7-------|-5----------------|
|----5------0------|---6---6----6---6-|---6------0-------|
|------7--5------0-|-----7--------7---|-----7--5-------0-|
|-------------7----|------------------|-------------7----|
|--0---------------|-0----------------|-0----------------|
|---------0--------|----------0-------|--------0---------|
 

|-------------------------0----------|
|-----------------0---0---0----------|
|---------0--2p0--0---0---0---------*|
|--0h2h4----------3-/-5---0---------*|
|-----------------0---0--------------|
|--0---------0----3-/-5--------------|
 

Section E:
 
|----------------|-------------------|-----------------------|
|-------0----0---|------0------------|---------------1-------|
|*--7p5--------0-|--------5--7p5p4---|----0--2p0-------------|
|*---------7-----|-5h7-------------5-|-3----------3-----2----|
|-------0--------|------0------------|-----------------------|
|--------------0-|-----------0-------|-3-------------2-----2-|
 

|--------------|-------------------|--------------|----0----|
|-----0---0----|------0------------|--------------|----0----|
|-7p5--------0-|--------5-7p5p4----|---0-2p0------|----0----|
|-------7------|-5h7-------------5-|-3--------3p0-|----0----|
|-----0--------|------0------------|--------------|-0-------|
|------------0-|----------0--------|-3---3--------|---------|
 

Repeat Section D, then Section E again, then:
Section F:
 
|------------------|--------------------|--------------------|
|------------------|--------------------|--------------------|
|------0--2p0------|-4p0--2h4--2p0------|-4p0--2h4--2p0------|
|-0h2----------2p0-|----------------2p0-|----------------2p0-|
|-0----------------|-0------------------|-0------------------|
|---------0--------|-----------0--------|-----------0--------|
 

|------------------|------------------|--------------------|
|------------------|------------------|--------------------|
|------0--2p0------|------0--2p0------|-4p0--2h4--2p0------|
|-0h2----------2p0-|-0h2----------2p0-|----------------2p0-|
|-0----------------|-0----------------|-0------------------|
|---------0--------|---------0--------|-----------0--------|
 

|--------------------|---------------------|
|--------------------|--------------0------|
|-4p0--2h4--2p0------|------0h2p0---0------|
|----------------2p0-|-0h2----------0------|
|-0------------------|-0-------------------|
|-----------0--------|---------------------|
           
                                            
Section G:                                             
                                                       
|-------------------|-----------------------|
|-------0--1p0------|-2p0--1-/-2-\-1p0------|
|*-0h2--0--2p0--2p0-|-3p0--2-/-3-\-2p0--2p0-|
|*-0h2----------2p0-|-------------------2p0-|
|--0----------------|-0---------------------|
|----------0--------|--------------0--------|
 
                                      ______    ______
                                      |1        |2
                                      |         |
|-----------------------|--------------------|-----------|
|-2p0--1-/-2-\-1p0------|------0--1p0--------|---0-------|
|-3p0--2-/-3-\-2p0--2p0-|-0h2--0--2p0--2p0--*|---0-------|
|-------------------2p0-|-0h2----------2p0--*|---0-------|
|-0---------------------|-0------------------|-----------|
|--------------0--------|---------0----------|-----------|
 

Section H:
 
|--3--0h2--3--0h2-|-3p2p0----------|-3--0h2--3p2p0----|
|-----------------|--------1--0----|------------------|
|*----------------|--------------0-|----------------0-|
|*----------------|----------------|------------------|
|--0--------------|-0--------------|-0----------------|
|----------0------|--------0-------|---------0--------|
 

|--0--0--0--0--|-3--0h2--3--0h2-|-3p2p0-----------|
|--0--0--1--1--|----------------|--------1--0-----|
|--0--0--0--0--|----------------|--------------0--|
|--3--3--2--2--|----------------|-----------------|
|--0--0--0--0--|-0--------------|-0---------------|
|--3--3--2--2--|---------0------|--------0--------|
 
  _______
  |1
  |
|----------------------|----------------|
|-------0--------------|----------------|
|-------0-----2p0------|-4p2p0--2--0---*|
|--0h2-----2-------2p0-|---------------*|
|--0-------------------|-0--------------|
|-------------0--------|-----------0----|
 
  _______
  |2
  |                  
|-------------------|--------------|
|-------0--1p0------|-2p0--1--0----|
|--0h2--0--2p0--2p0-|-3p0--2--0----|  repeat Section G, then
|--0h2----------2p0-|--------------|  Section H but using
|--0----------------|-0------------|  second part of repeat
|----------0--------|---------0----|  twice, then:
 

Repeat Section C, then Section B, then final section:
 tune bracketed note up to E
 
|--(0)--|------------------------------------------------|
|-------|--0---1p0---1-/-3---5---3---5---7---9---10---7--|
|-------|--0---0-----0-----------------------------------|
|-------|--0---2p0---2-/-4---5---4---5---7---8--------7--|
|-------|------------------------------------------------|
|-------|------------------------------------------------|
 

|-8---8---5----------------------------------------|
|-------------7p5-------5---------------3---3------|
|-------------------7---5-------------------2------|
|-----------------------5-------------------0---0--|
|---------------------------0---0---0--------------|
|--------------------------------------------------|
 

|---------------------------------0-------2p0---0-------2p0-|
|-0---------------0---------------0-------------0-----------|
|-0-------5-------0-------2---------------------------------|
|-2-------5-------0-------4-------2---2---------1---1-------|
|---------5-------------------------------------------------|
|-----2-------5-------0-------0-----------------------------|
 

|-0---2---3-----------------------------------------|
|-0-------------------------------------------------|
|-------------0------------0---------------0--------|
|-0---0----------------0-------0-------0-------0----|
|-------------6----5---------------3----------------|
|---------------------------------------------------|
 
 
|-----------------------------------------------------------|
|-----------------------------------------------------------|
|---------0-------2-------2-/-4-\-2p0---2-------2-/-4-\-2p0-|
|-----0-------0---0-------0-------------0-------0-----------|
|-2---------------2-------2-/-4-\-2p0---2-------2-/-4-\-2p0-|
|---------------------0---------------------0---------------|
 

               tune bracketed note back down to D  
      
|--------------------------------------(0)-------|
|----------------------0---1-/-3---0-------------|
|-5-\-4---2--/--7------0---0-------0-------------|
|----------------------0---2-/-4---0-------------|
|-5-\-4---2--/--7--------------------------------|
|------------------------------------------------|
 

|-b-4-----0-----------------------------------------------|
|------5----------0-------------------------------ha-12---|
|-------------5-----------0-----------------------ha-12---|
|---------------------7-------------0-------------ha-12---|
|-----------------------------/-9-------4p2---0---ha-12---|
|---------------------------------------------------------|
 

JC, Sheffield, England, 2003.

________________________________________________________________________________
C you Yahoo!?
The New Yahoo! Shopping - with improved product search
     
Добавлено: 08.11.2013
Другие материалы по этой песне:
  • Аккорды и текст

Страница создана 13.10.2013
http://primanota.ru/adrian-legg/ghosts-in-the-hills-chords.htm
Привет, Гость.
Предлагаем пройти революционный курс по гитаре.
Подарок от PrimaNota.Ru, забирай!