PrimaNota.ru - самый крупный в мире бесплатный архив песенных текстов, аккордов, табулатур и нот


Adrian Legg - Cradle songs - таба, видео

Регистрация Запомнить меня
Войти через:  Facebook Google Twitter Vk Yandex Mail.ru

Adrian Legg - Cradle songs - таба, видео

Печатать
Просмотров: 108


Arranged by Neil Martin
Email:  neil@neilandruth.co.uk

h=hammer on
p=pull off
s=slide

Notes:  

This is one of my absolute favourite Adrian legg tunes. It's a regular EAGDBE set up capo'd on
fret five. I've taken Adrian's own transcription for the first 6 bars and then worked it out from 
there. Note that the visual length of the bars as shown in the ASCI Tab doesn't reflect the actual 
length of the bars on the recording - see the time codes noted above the score lines for details. 
Please do e-mail me if you have any tweaks or if I can be of any assistance.


CRADLE SONGS
============

INTRO
1. 0:00
E-|------------------|---5----12-15-|---17-15-12-|----5----------------------|------------5-|-----------5-|
B-|------------------|-5---13-------|------------|-12------5-----------------|----------6---|---------6---|
G-|----------------5-|--------------|------------|------12------5------------|--------6-----|-------7-----|
D-|-------5----5-7---|--------------|------------|-----------12-------5------|-----7--------|-----5-------|
A-|---5h7---10-------|--------------|------------|----------------12-------5-|---5----------|---5---------|
E-|-8----------------|--------------|-5----------|----------------------13---|-6------------|-7-----------|

FIRST TIME
2. 0:12
E-|-------8-------------8-------|-------5-------------5-------|
B-|-----5---5---5-----5---5---5-|-----5---5---5-----5---5---5-|
G-|---5-------5-----5-------5---|---5-------5-----5-------5---|
D-|---------------5-------------|-7-------------9-------------|
A-|-----------------------------|-----------------------------|
E-|-8---------------------------|-----------------------------|

3.
E-|-------5-------------5-------|-------5--------------5-------|
B-|-----5---5---5-----5---5---5-|-----5---5---5------5---5---5-|
G-|---5-------5-----5-------5---|---5-------5------5-------5---|
D-|---------------7-------------|-9-------------10-------------|
A-|-----------------------------|------------------------------|
E-|-5---------------------------|------------------------------|

4.
E-|-------5-------------5-------|-------5-------------5-------|
B-|-----6---6---6-----6---6---6-|-----5---5---5-----5---5---5-|
G-|---5-------5-----5-------5---|---5-------5-----5-------5---|
D-|---------------5-------------|-7-------------9-------------|
A-|-8---------------------------|-----------------------------|
E-|-----------------------------|-----------------------------|

5.
E-|-------5-------------5-------|-------5-------------5-------|
B-|-----6---6---6-----6---6---6-|-----6---6---6-----6---6---6-|
G-|---5-------5-----5-------5---|---5-------5-----5-------5---|
D-|---------------7-------------|-9-------------7-------------|
A-|-5---------------------------|-----------------------------|
E-|-----------------------------|-----------------------------|

6. 0:27 RUN DOWN
E-|-------7-------------5-------|-----------------------------|
B-|-----8---8---8-----6---6---6-|-------8-------------6-------|
G-|---7-------7-----5-------5---|-----9---9---9-----7---7---7-|
D-|-5---------------------------|---5-------5-----5-------5---|
A-|---------------8-------------|-7-------------5-------------|
E-|-----------------------------|-----------------------------|





7. RUN DOWN
E-|-------5---------------------|-----------------------------|
B-|-----6---6---6-------8-------|-------6-------------5-------|
G-|---5-------5-------9---9---9-|-----7---7---7-----5---5---5-|
D-|-----------------5-------5---|---5-------5-----5-------5---|
A-|-8-------------7-------------|-5---------------------------|
E-|-----------------------------|---------------8-------------|

8. RUN DOWN
E-|-----------------------------|-----------------------------|
B-|-------8-------------6-------|-------5-------------6-------|
G-|-----9---9---9-----7---7---7-|-----5---5---5-----7---7---7-|
D-|---5-------5-----5-------5---|---5-------5-----5-------5---|
A-|-7-------------5-------------|-----------------------------|
E-|-----------------------------|-8-------------7-------------|


9. RUN DOWN
E-|-----------------------------|-----------------------------|
B-|-------6-------------6-------|-------6-------------6-------|
G-|-----7---7---7-----7---7---7-|-----7---7---7-----7---7---7-|
D-|---5-------5-----5-------5---|---5-------5-----5-------5---|
A-|-----------------------------|-----------------------------|
E-|-7-------------7-------------|-7-------------7-------------|



SECOND TIME

10. 0:40
E-|-------8-------------8-------|-------5-------------5-------|
B-|-----5---5---5-----5---5---5-|-----5---5---5-----5---5---5-|
G-|---5-------5-----5-------5---|---5-------5-----5-------5---|
D-|---------------5-------------|-7-------------9-------------|
A-|-----------------------------|-----------------------------|
E-|-8---------------------------|-----------------------------|

11.
E-|-------5-------------5-------|-------5--------------5-------|
B-|-----5---5---5-----5---5---5-|-----5---5---5------5---5---5-|
G-|---5-------5-----5-------5---|---5-------5------5-------5---|
D-|---------------7-------------|-9-------------10-------------|
A-|-----------------------------|------------------------------|
E-|-5---------------------------|------------------------------|

12.
E-|--------5--------------5-------|-------5--------------5-------|
B-|------5---5---5------5---5---5-|-----5---5---5------5---5---5-|
G-|----5-------5------5-------5---|---5-------5------5-------5---|
D-|-12-------------10-------------|-9-------------10-------------|
A-|-------------------------------|------------------------------|
E-|-------------------------------|------------------------------|

13.
E-|-------5-------------5-------|-------5-------------5-------|
B-|-----6---6---6-----6---6---6-|-----5---5---5-----5---5---5-|
G-|---5-------5-----5-------5---|---5-------5-----5-------5---|
D-|---------------5-------------|-7-------------9-------------|
A-|-8---------------------------|-----------------------------|
E-|-----------------------------|-----------------------------|

14.
E-|-------5-------------5-------|-------5-------------5-------|
B-|-----6---6---6-----6---6---6-|-----6---6---6-----6---6---6-|
G-|---5-------5-----5-------5---|---5-------5-----5-------5---|
D-|---------------7-------------|-9-------------7-------------|
A-|-5---------------------------|-----------------------------|
E-|-----------------------------|-----------------------------|

15.
E-|--------5-------------5-------|-------5-------------5-------|
B-|------6---6---6-----6---6---6-|-----6---6---6-----6---6---6-|
G-|----5-------5-----5-------5---|---5-------5-----5-------5---|
D-|-10-------------9-------------|-7-------------9-------------|
A-|------------------------------|-----------------------------|
E-|------------------------------|-----------------------------|





16. 1:00 RUN DOWN
E-|-------7-------------7-------|-------5-------------5-------|
B-|-----8---8---8-----8---8---8-|-----6---6---6-----6---6---6-|
G-|---7-------7-----7-------7---|---5-------5-----5-------5---|
D-|-5-------------5-------------|-----------------------------|
A-|-----------------------------|-8-------------8-------------|
E-|-----------------------------|-----------------------------|

17. RUN DOWN
E-|-----------------------------|-----------------------------|
B-|-------8-------------8-------|-------6-------------6-------|
G-|-----9---9---9-----9---9---9-|-----7---7---7-----7---7---7-|
D-|---5-------5-----5-------5---|---5-------5-----5-------5---|
A-|-7-------------7-------------|-----------------------------|
E-|-----------------------------|-7-------------7-------------|

THIRD TIME

18. 1:07
E-|-------8-------------8-------|-------5-------------5-------|
B-|-----5---5---5-----5---5---5-|-----5---5---5-----5---5---5-|
G-|---5-------5-----5-------5---|---5-------5-----5-------5---|
D-|---------------5-------------|-7-------------9-------------|
A-|-----------------------------|-----------------------------|
E-|-8---------------------------|-----------------------------|

19.
E-|-------5-------------5-------|-------5--------------5-------|
B-|-----5---5---5-----5---5---5-|-----5---5---5------5---5---5-|
G-|---5-------5-----5-------5---|---5-------5------5-------5---|
D-|---------------7-------------|-9-------------10-------------|
A-|-----------------------------|------------------------------|
E-|-5---------------------------|------------------------------|

20.
E-|-------5-------------5-------|-------5-------------5-------|
B-|-----6---6---6-----6---6---6-|-----5---5---5-----5---5---5-|
G-|---5-------5-----5-------5---|---5-------5-----5-------5---|
D-|---------------5-------------|-7-------------9-------------|
A-|-8---------------------------|-----------------------------|
E-|-----------------------------|-----------------------------|

21.
E-|-------5-------------5-------|-------5-------------5-------|
B-|-----6---6---6-----6---6---6-|-----6---6---6-----6---6---6-|
G-|---5-------5-----5-------5---|---5-------5-----5-------5---|
D-|---------------7-------------|-9-------------7-------------|
A-|-5---------------------------|-----------------------------|
E-|-----------------------------|-----------------------------|


22. 1:21
E-|-------7-------------7-------|-------8-------------9-------|
B-|-----8---8---8-----8---8---8-|-----7---7---7-----8---8---8-|
G-|---7-------7-----7-------7---|---8-------8-----9-------9---|
D-|-5-------------5-------------|-7-------------8-------------|
A-|-----------------------------|-----------------------------|
E-|-----------------------------|-----------------------------|

23.
E-|--------10----------------10--------|----------13--------------------13----------|
B-|------9----9----9-------9----9----9-|-------12----12----12--------12----12----12-|
G-|---10--------10------10--------10---|----13----------13--------13----------13----|
D-|-9----------------9-----------------|-12--------------------12-------------------|
A-|------------------------------------|--------------------------------------------|
E-|------------------------------------|--------------------------------------------|

24.
E-|----------16--------------------16----------|----------17--------------------17----------|
B-|-------15----15----15--------15----15----15-|-------15----15----15--------15----15----15-|
G-|----16----------16--------16----------16----|----16----------16--------16----------16----|
D-|-15--------------------15-------------------|-15--------------------15-------------------|
A-|--------------------------------------------|--------------------------------------------|
E-|--------------------------------------------|--------------------------------------------|







25.
E-|----------17--------------------17----------|----------16--------------------16----------|
B-|-------15----15----15--------15----15----15-|-------15----15----15--------15----15----15-|
G-|----16----------16--------16----------16----|----16----------16--------16----------16----|
D-|-14--------------------14-------------------|-14--------------------14-------------------|
A-|--------------------------------------------|--------------------------------------------|
E-|--------------------------------------------|--------------------------------------------|

26.
E-|----------15--------------------15----------|----------15--------------------15----------|
B-|-------14----14----14--------14----14----14-|-------14----14----14--------14----14----14-|
G-|----15----------15--------15----------15----|----15----------15--------15----------15----|
D-|-14--------------------14-------------------|-13--------------------13-------------------|
A-|--------------------------------------------|--------------------------------------------|
E-|--------------------------------------------|--------------------------------------------|

27.
E-|----------16--------------------16----------|----------15--------------------15----------|
B-|-------14----14----14--------14----14----14-|-------14----14----14--------14----14----14-|
G-|----15----------15--------15----------15----|----15----------15--------15----------15----|
D-|-13--------------------13-------------------|-13--------------------13-------------------|
A-|--------------------------------------------|--------------------------------------------|
E-|--------------------------------------------|--------------------------------------------|

28.
E-|----------14--------------------14----------|----------14--------------------14----------|
B-|-------13----13----13--------13----13----13-|-------13----13----13--------13----13----13-|
G-|----14----------14--------14----------14----|----14----------14--------14----------14----|
D-|-13--------------------13-------------------|-12--------------------12-------------------|
A-|--------------------------------------------|--------------------------------------------|
E-|--------------------------------------------|--------------------------------------------|

29.
E-|----------15--------------------15----------|----------14--------------------14----------|
B-|-------13----13----13--------13----13----13-|-------13----13----13--------13----13----13-|
G-|----14----------14--------14----------14----|----14----------14--------14----------14----|
D-|-12--------------------12-------------------|-12--------------------12-------------------|
A-|--------------------------------------------|--------------------------------------------|
E-|--------------------------------------------|--------------------------------------------|

30.
E-|----------13--------------------13----------|----------13--------------------13----------|
B-|-------12----12----12--------12----12----12-|-------12----12----12--------12----12----12-|
G-|----13----------13--------13----------13----|----13----------13--------13----------13----|
D-|-12--------------------12-------------------|-12--------------------12-------------------|
A-|--------------------------------------------|--------------------------------------------|
E-|--------------------------------------------|--------------------------------------------|

30.
E-|--------10----------------10--------|-------7-------------7-------|
B-|------9----9----9-------9----9----9-|-----6---6---6-----6---6---6-|
G-|---10--------10------10--------10---|---7-------7-----7-------7---|
D-|-9----------------9-----------------|-6-------------6-------------|
A-|------------------------------------|-----------------------------|
E-|------------------------------------|-----------------------------|

31.
E-|-------7-------------7-------|-------8-------------8-------|
B-|-----6---6---6-----6---6---6-|-----6---6---6-----6---6---6-|
G-|---7-------7-----7-------7---|---7-------7-----7-------7---|
D-|-5-------------5-------------|-5-------------5-------------|
A-|-----------------------------|-----------------------------|
E-|-----------------------------|-----------------------------| 

30. 1:57 RUN DOWN
E-|-------7-------------5-------|-----------------------------|
B-|-----8---8---8-----6---6---6-|-------8-------------6-------|
G-|---7-------7-----5-------5---|-----9---9---9-----7---7---7-|
D-|-5---------------------------|---5-------5-----5-------5---|
A-|---------------8-------------|-7-------------5-------------|
E-|-----------------------------|-----------------------------|

31. RUN DOWN
E-|-------5---------------------|-----------------------------|
B-|-----6---6---6-------8-------|-------6-------------5-------|
G-|---5-------5-------9---9---9-|-----7---7---7-----5---5---5-|
D-|-----------------5-------5---|---5-------5-----5-------5---|
A-|-8-------------7-------------|-5---------------------------|
E-|-----------------------------|---------------8-------------|


32. RUN DOWN
E-|-----------------------------|-----------------------------|
B-|-------8-------------6-------|-------5-------------6-------|
G-|-----9---9---9-----7---7---7-|-----5---5---5-----7---7---7-|
D-|---5-------5-----5-------5---|---5-------5-----5-------5---|
A-|-7-------------5-------------|-----------------------------|
E-|-----------------------------|-8-------------7-------------|

33. RUN DOWN                            slow down and let ring
E-|-----------------------------|-----------------------------|
B-|-------6-------------6-------|-------6-------------6-------|
G-|-----7---7---7-----7---7---7-|-----7---7---7-----7---7---7-|
D-|---5-------5-----5-------5---|---5-------5-----5-------5---|
A-|-5-------------5-------------|-----------------------------|
E-|-----------------------------|-7-------------7-------------|

34. 2:11
E-|---------------5-|-------------5-|-------------5-|-----------5-----------5-|
B-|-----------5h8---|---------5h8---|---------5h8---|---------5-----------5---|
G-|---------5-------|-------7-------|-------7-------|-------7-----------6-----|
D-|-------5---------|-----5---------|-----5---------|-----5-----------5-------|
A-|---5h7-----------|---5-----------|---5-----------|---7-----------7---------|
E-|-8---------------|-7-------------|-6-------------|-5-----------5-----------|

35.
E-|-------------5---|-------------5---|-------------5---|-------------5-----|
B-|-------5h6-6---6-|-------5h6-6---6-|-------5h6-6---6-|-------5h6h8---8-6-|
G-|-----7-----------|-----7-----------|-----7-----------|-----7-------------|
D-|---7-------------|---7-------------|---7-------------|---5---------------|
A-|-5---------------|-----------------|-----------------|-------------------|
E-|-----------------|-9---------------|-8---------------|-7-----------------|

36.                                                   2:34
E-|-------------------------|-------------------------|--------5-----8---|--------5-----8---|
B-|---------6-----------6---|---------5-----------5---|-8----8---8-8---5-|-8----5---8-8---5-|
G-|-------5---5-------5---5-|-------5---5-------5---5-|----5-------------|----5-------------|
D-|-----5-----------5-------|-----5-----------5-------|------------------|------------------|
A-|---8-----------8---------|---7-----------7---------|-8----------8-----|-7----------7-----|
E-|-8-----------8-----------|-8-----------8-----------|------------------|------------------|

37.                             2:42
E-|--------5---------|--------------|-5-7p5---8-7-5-|-5-7p5---8-7-5-|-------|----------|
B-|-8----8---8-8-6-5-|---5--------6-|-5-------5-5-5-|-5-------5-5-5-|-------|----------|
G-|----5-------------|-7---7--7h9---|---------------|---------------|-5---5-|-7--9p7p5-|
D-|------------------|--------------|-7-----6-------|-5-------------|-5---5-|-5--------|
A-|-6----------5-----|--------------|---------------|-------9-------|-8---7-|----------|
E-|------------------|-7------7-----|---------------|---------------|-------|-7--------|

38.[2:50 A..............................................][B................
E-|-------------5-----|-------------5-----|-------------|------------------|
B-|-------5h6h8---8-5-|-6-----5h6h8---8-5-|-5---------5-|-----6-6------6-6-|
G-|-----7-------------|-----5-------------|---7p5 5h7---|-----7-7------5-5-|
D-|---7---------------|---7---------------|-------------|------------------|
A-|-5-----------------|-8-----------------|-------------|---8--------8-----|
E-|-------------------|-------------------|-8-----8-----|-6--------5-------|

39..................3:05............][3:00 A..................................
E-|-----------------|----------------|-------------5-----|-------------5-----|
B-|-----6-6-----6-6-|-----5-5----5-5-|-------5h6h8---8-6-|-6-----5h6h8---8-6-|
G-|-----7-7-----7-7-|-----5-5----6-6-|-----7-------------|-----5-------------|
D-|-----------------|----------------|---7---------------|---7---------------|
A-|---8-------5-----|---7-------7----|-5-----------------|-8-----------------|
E-|-6-------7-------|-8-------9------|-------------------|-------------------|

40..............][                      slowly                [3:11 A..................................
E-|--------------|-------5----|-------5---|-------5---|-------|-------------5-----|-------------5-----|
B-|-5----------5-|-8-------8--|-8-------8-|-8-------8-|-6-5---|-------5h6h8---8-6-|-6-----5h6h8---8-6-|
G-|----7p5-5h7---|------------|-----------|-----------|-------|-----7-------------|-----5-------------|
D-|--------------|------------|-----------|-----------|-------|---7---------------|---7---------------|
A-|--------------|------------|-----------|-----------|-8-7---|-5-----------------|-8-----------------|
E-|-8------8-----|-7---7------|-6---6-----|-5---5-----|-------|-------------------|-------------------|

41..............][B....................................................]
E-|--------------|------------------|-----------------|----------------|
B-|-5----------5-|-----6-6------6-6-|-----6-6-----6-6-|-----5-5----5-5-|
G-|----7p5-5h7---|-----7-7------5-5-|-----7-7-----7-7-|-----5-5----6-6-|
D-|--------------|------------------|-----------------|----------------|
A-|--------------|---8--------8-----|---8-------5-----|---7-------7----|
E-|-8------8-----|-6--------5-------|-6-------7-------|-8-------9------|


42.
E-|-----------------|--------------8-|
B-|-----6-6-----7-7-|-8-8h10p8p7h8---|
G-|-----7-7-----5-5-|-5--------------|
D-|---7-------7-----|----------------|
A-|-5-------6-------|-7--------------|
E-|-----------------|----------------|

43. 3:29 slowly
E-|-------5---------5---|-------5-----------5-|-----6p5-6-----6p5-6-|-----6p5-6-6---8-6-|
B-|-8---8---8-8---8---8-|-8---8---8-8---7-----|-----8---8-----8---8-|-----8---8---8-----|
G-|---5---------5-------|---5---------5---5---|---7---------7-------|---7---------------|
D-|---------------------|---------------------|-5-------------------|-----------5-------|
A-|-8---------7---------|-6---------5---------|-----------9---------|-8---------7-------|
E-|---------------------|---------------------|---------------------|-------------------|

44.                       3:42
E-|-6-----5-6-5---------5-|-----8---8-|-----8---8-|-----8---8-|---8-6p5-|---5---|-----------|
B-|-6-----------------6---|-----------|-----------|-----------|---------|-8---8-|-6---------|
G-|-----5-----------5-----|---5---5---|---5---5---|---5---5---|---------|-------|-----5h7h9-|
D-|---8-----------7-------|-8---------|-7---------|-6---------|---------|-------|---8-------|
A-|-8-----------8---------|-----------|-----------|-----------|-5-------|-------|-5---------|
E-|-----------------------|-----------|-----------|-----------|---------|-------|-----------|

45.[C.....................................................]
E-|---------------------|---------------------|-----------|-----------5-|
B-|-----6p5-6-----6p5-6-|-----6p5-6-----6p5-6-|-----------|-----5h6h8---|
G-|-----7---7-----7---7-|-----7---7-----7---7-|-----9p7-9-|-6h7---------|
D-|---7---------7-------|---5---------5-------|-----7---7-|-7-----------|
A-|-5-------------------|---------------------|---7-------|-------------|
E-|-----------8---------|-7---------6---------|-5---------|-5-----------|

46.[3:57 C................................................]
E-|---------------------|---------------------|-----------|-----------5-6-5-|
B-|-----6p5-6-----6p5-6-|-----6p5-6-----6p5-6-|-----------|-----5h6h8-------|
G-|-----7---7-----7---7-|-----7---7-----7---7-|-----9p7-9-|-6h7-------------|
D-|---7---------7-------|---5---------5-------|-----7---7-|-7---------------|
A-|-5-------------------|---------------------|---7-------|-----------------|
E-|-----------8---------|-7---------6---------|-5---------|-5---------------|

47. 4:07
E-|---------------------|-------------5---|-------|-----|
B-|-----6p5-6-----6p5-6-|-----6p5-6-6---6-|-6-5-5-|---5-|
G-|-----7---7-----7---7-|-----7---7-7-----|-7-----|-7-5-|
D-|---7---------7-------|---7-------------|-------|-----|
A-|-5-------------------|-----------------|-------|-----|
E-|-----------9---------|-8---------7-----|-8-----|---8-|

48. 4:15
E-|-8---8-8---6p5-|-----------|-8---8-8---6p5-|-----------|---------5-----|---------------|
B-|---------------|-8---5-----|---------------|-8---5-----|-6---5h6-----5-|-6---8p6-5-----|
G-|---5-----5-----|---5---5---|---5-----5-----|---5---5---|---5-------5---|---5---------5-|
D-|-------5-------|---------7-|-------5-------|---------7-|---------------|-----------5---|
A-|-8-------------|-----------|-8-------------|-----------|-5-------------|---------------|
E-|---------------|-8-----5---|---------------|-8-----5---|---------5-----|-6-------8-----|

49.
E-|---------5-----|---------|
B-|-6---5h6-----5-|-8---5---|
G-|---5-------5---|---5---5-|
D-|---------------|---------|
A-|-5-------------|---------|
E-|---------5-----|-6-----8-|

4:28 Repeat 43-46

50. 5:06                                                                          ends 5:29
E-|---------------------|-------------5---|-----------|---------6-|---------8-|---------5-|
B-|-----6p5-6-----6p5-6-|-----6p5-6-6---6-|-6-5-5---5-|-------6---|-------8---|-------6---|
G-|-----7---7-----7---7-|-----7---7-7-----|-7-----7-5-|-----5-----|-----5-----|-----5-----|
D-|---7---------7-------|---7-------------|-----------|---5-------|---5-------|---7-------|
A-|-5-------------------|-----------------|-----------|-8---------|-7---------|-8---------|
E-|-----------9---------|-8---------7-----|-8-------8-|-----------|-----------|-----------|


Добавлено: 20.10.2013
Другие материалы по этой песне:
  • Аккорды и текст

Страница создана 20.10.2013
http://primanota.ru/adrian-legg/cradle-songs-chords.htm
Привет, Гость.
Предлагаем пройти революционный курс по гитаре.
Подарок от PrimaNota.Ru, забирай!