PrimaNota.ru - самый крупный в мире бесплатный архив песенных текстов, аккордов, табулатур и нот


Adrian Legg - A Waltz For Leah - таба, видео

Регистрация Запомнить меня
Войти через:  Facebook Google Twitter Vk Yandex Mail.ru

Adrian Legg - A Waltz For Leah - таба, видео

Печатать
Просмотров: 120
A Waltz for Leah
by Adrian Legg
 
Album: Inheritance
 
Tuning: DADGAD   Capo: 5th fret
 
h = hammer-on     p = pull-off
/ = slide to note
 
1
|----7p4p0--|------------|-----------|---------|-----------|
|-----------|--4p2p0-----|--------0--|---------|-----------|
|*----------|---------0--|-----0-----|---------|-------0---|
|*----------|------------|--4--------|--4p2p0--|--2h4------|
|-----------|--0---------|-----------|---------|--0--------|
|----0------|------------|--0--------|--0------|-----------|
                               _______       _______
                               |1            |2 
6                              |             |
|--------------|--------------|------------|-----------|
|--------------|--------------|--------0---|-----------|
|--------------|--------------|-----0-----*|-----------|
|--2h4p2p0-----|--0--0--0--0--|--4--------*|--0--------|
|--0--------4--|--------------|------------|-----------|
|--------------|--0-----------|--0---------|--0--------|

repeat bars 1 - 8

9
|------------|------------|---------|---------|-----------|
|------------|------------|---------|---------|-----------|
|*--------0--|--0---------|---------|---------|-------0---|
|*---2h4-----|-----4p2p0--|--0h2h4--|--4p2p0--|--2h4------|
|----0-------|--0---------|--0------|---------|--0--------|
|------------|------------|---------|---------|-----------|

              ________                   ________
              |1                         |2
14            |                          |
|-----------|----------|---------------|----------|---------|
|--0--------|----------|---------------|--2p0-----|--4p2p0--|
|-----0-----|----------|--------------*|-------0--|---------|
|--------4--|--2p0-----|--0--0--0--0--*|----------|---------|
|--0--------|--0----4--|---------------|--0-------|--0------|
|-----------|----------|--0------------|----------|---------|

19
|--0-------|-----------|----------|----------|
|-----4p2--|--0--------|----------|----------|
|----------|-----0-----|----------|----------|
|----------|--------4--|--2p0-----|--0-------|
|--0-------|--0--------|--0----4--|--2p0--0--|
|----------|-----------|----------|----------|

repeat bars 1 - 16, including repeat of bars 1 - 8

23
|---------0--|-----------|-------------|--0---------|
|------4-----|--4--------|-----0--2h4--|-----4p2p0--|
|*--4--------|-----4-----|--0----------|------------|
|*-----------|--------2--|-------------|------------|
|---2--------|--2--------|--0----------|--0---------|
|------------|-----------|-------------|------------|

27
|-------0--|---------|-----------|---------|-------------|
|----------|---------|--------0--|---------|-------------|
|--2h4-----|--4p2p0--|-----0-----|---------|--2--4p2p0---|
|----------|---------|--4--------|--4p2p0--|-------------|
|----------|---------|-----------|---------|--0----------|
|--5-------|--5------|--0--------|--0------|-------------|
                     _____   ______
                     |1      |2
32                   |       |
|------|-----------|-------|-----------|-----------|
|------|--------0--|-------|-----------|--------0--|
|--2---|-----0-----|------*|-----------|-----0-----|
|------|--4--------|--0---*|---4---2---|--0--------|
|--0---|--2--------|-------|---2---0---|-----------|
|------|-----------|-------|-----------|--5--------|

37
|--------------|--------------|-------|
|--------------|--------------|-------|
|--------------|--------------|-------|
|--2h4p2p0-----|--0--0--0--0--|--0----|
|--0--------4--|--0-----------|--0----|
|--------------|--------------|-------|

repeat bars 23 - 39, then repeat all from beginning

40
|-----------0--|--4p0------|-----------|-----------|
|----2-/-4-----|--------2--|--0--------|-----------|
|*----------0--|--4p0------|-----0-----|-------0---|
|*---2-/-4-----|--------2--|--0-----4--|--2h4------|
|--------------|-----------|-----------|--0--------|
|--------------|-----------|-----------|-----------|

44
|---------0--|--4h5--4--|--0--------|------------|
|--2-/-4-----|----------|-----4--2--|--0---------|
|---------0--|--4-------|--0--------|-----0------|
|--2-/-4-----|----------|-----------|--------4---|
|------------|----------|-----------|--0---------|
|------------|----------|-----------|------------|

48
|----------|----------|--0--------|-----------|
|----------|--0--2h4--|-----4--2--|--0--------|
|-------0--|----------|-----------|-----0-----|
|--2h4-----|----------|-----------|--------4--|
|--0-------|--0-------|--0--------|--0--------|
|----------|----------|-----------|-----------|

52
|----------|-------------|
|----------|-------------|
|----------|------------*|
|--2p0-----|--0--0--0---*|
|--0----4--|-------------|
|----------|--0----------|

(repeat bars 48 - 51 in repeat of 48 - 53)
repeat all again from beginning, repeating bars
48 -51 four times, then finish with this chord:

54
|---0------|
|---2------|
|---2------|
|---4------|
|---0------|
|---0------|
 

James Calton; Sheffield, England; 2004.
 

________________________________________________________________________________
     
Добавлено: 26.07.2013
Другие материалы по этой песне:
  • Аккорды и текст

Страница создана 26.07.2013
http://primanota.ru/adrian-legg/a-waltz-for-leah-chords.htm
Привет, Гость.
Предлагаем пройти революционный курс по гитаре.
Подарок от PrimaNota.Ru, забирай!