PrimaNota.ru - самый крупный в мире бесплатный архив песенных текстов, аккордов, табулатур и нот


Adrian Gabardo - Old Story - таба

Регистрация Запомнить меня
Войти через:  Facebook Google Twitter Vk Yandex Mail.ru

Adrian Gabardo - Old Story - таба

Печатать
Просмотров: 113
This is another original by me. It's very easy, in the first chord set(B1 - G2 - D2) that closes as
an Am, don't do as you do in an Am, put your middle finger in the G string so you can simply slide
to the next set that's B1 - G2 - D3).

Title: Old Story
                                                       Artist: Adrian Gabardo
Classic Guitar or Eletric Clean

Play 2 notes per second(half-time)

E |----------------------|----------------------|----------------------|
B |--------1--------1----|--------1--------1----|--------1--------1----|
G |-----2--------2-------|-----2--------2-------|-----2--------2-------|
D |--2--------2----------|--2--------2----------|--2--------2----------|
A |----------------------|----------------------|----------------------|
E |----------------------|----------------------|----------------------|

E |-------------------------------|----------------------|----------------------|
B |--------1--------1--------1----|--------1--------1----|--------1--------3----|
G |-----2--------2--------2-------|-----2--------2-------|-----2--------2-------|
D |--2--------2--------3----------|--3--------3----------|--3--------3----------|
A |-------------------------------|----------------------|----------------------|
E |-------------------------------|----------------------|----------------------|

E |----------------------|----------------------|----------------------|
B |--------3--------3----|--------3--------1----|--------1--------1----|
G |-----2--------2-------|-----2--------3-------|-----3--------3-------|
D |--3--------3----------|--3--------3----------|--3--------3----------|
A |----------------------|----------------------|----------------------|
E |----------------------|----------------------|----------------------|

E |----------------------|----------------------|----------------------|
B |--------1--------3----|--------3--------3----|--------3-------------|
G |-----3--------3-------|-----3--------3-------|-----3----------------|
D |--3--------2----------|--2--------2----------|--2-------------------|
A |----------------------|----------------------|----------------------|
E |----------------------|----------------------|----------------------|

Play 1 note per second(one-time)

E |-----------3-|-----------3|-------------1|----------1--|
B |--------1----|--------1---|----------1---|--------1----|
G |-----2-------|-----2------|-------2------|-----2-------|
D |--3----------|--3---------|----3---------|--3----------|
A |-------------|------------|--------------|-------------|
E |-------------|------------|--------------|-------------|

E |-------------3|-------------3-|-----------0-|-----------0-|
B |-----------3--|----------3----|--------3----|--------3----|
G |--------2-----|-------2-------|-----2-------|-----2-------|
D |-----3--------|----3----------|--3----------|--3----------|
A |--------------|---------------|-------------|-------------|
E |--------------|---------------|-------------|-------------|

E |-----------1-|-----------1-|--------5----||
B |--------0----|--------3----|--------5----||
G |-----2-------|-----2-------|-----6-------||
D |--3----------|--3----------|--7----------||
A |-------------|-------------|-------------||
E |-------------|-------------|-------------||

Добавлено: 07.08.2015
Другие материалы по этой песне:
  • Аккорды и текст

Страница создана 07.08.2015
http://primanota.ru/adrian-gabardo/old-story-chords.htm
Привет, Гость.
Предлагаем пройти революционный курс по гитаре.
Подарок от PrimaNota.Ru, забирай!