PrimaNota.ru - самый крупный в мире бесплатный архив песенных текстов, аккордов, табулатур и нот


Adrian Belew - The Man In The Moon - текст песни, таба, видео

Регистрация Запомнить меня
Войти через:  Facebook Google Twitter Vk Yandex Mail.ru

Adrian Belew - The Man In The Moon - текст песни, таба, видео

Печатать
Просмотров: 231
Уроки эстрадного вокала в Санкт-Петербурге
ADRIAN BELEW - THE MAN IN THE MOON
As played on the amazing record "acoustic".


First chord is something similar (play more raw you can!)

E|----4----|
B|----4----|
G|----6----|
D|----6----|
A|----0----|
E|----0----|


*Play arpeggio (1st, 2nd, 3th and 4th strings every chords)*

A
There I stood in the night
G#-
 out on the broken pier
            C#-
me with my feet in the sea
C#-7           A
 you with your face in the clouds,
    G#-
the man in the moon
         A
and as I heard your voice,

 felt your laugh
G#-
 flood across the broken pier
A                    (growing, then play chords)
I wanted to die right then and there
     G#-
You smiled down across the waves
         C#-
 as if to say to me
C#-7    A
"Everything will be okay,
     G#-      C#-
be strong and true"
      A
and I felt your eyes

  like the tide
G#-
pulling me out into the air
      A
for a moment in time

 you held me there,


*Play main arpeggio*

      A
and I felt your eyes

  like the tide
G#-
pulling me out into the air
  A
Oh for a moment in time

 you held me there,

F#-
 father and son,
E
home again'

Main arpeggio

E|------------0---0------------0---0-|------------0---0------------0---0---|
B|------5---5---5--------5---5---5---|------6---6---6-------6---6----6-----|
G|----6---6------------6---6---------|----6---6-----------6---6------------|
D|--7----------------7---------------|--4---------------4------------------|
A|-----------------------------------|-------------------------------------|
E|-----------------------------------|-------------------------------------|

E|------------0----0----------0---0--|
B|------5---5---5-------5---5---5----|
G|----6---6-----------4---4----------| or something like this!!
D|--6---------------6----------------|
A|-----------------------------------|
E|-----------------------------------|

Chords

     A      G#-     C#-    C#-7
E|---0---|---0---|---0---|---0---|-------|
B|---5---|---4---|---5---|---5---|-------|
G|---6---|---4---|---6---|---4---|-------|
D|---7---|---6---|---6---|---6---|-------|
A|---0---|---0---|---0---|---0---|-------|
E|---0---|---0---|---0---|---0---|-------|


Of course, fell free to make this tab better.
I did my best, but Adrian is a monster guitarist and he does some strange chord; he's a 
he's the story, and I'm only a nut.
But this is my tribute to him.
Thank you Ade.


This tab and the time to write it is dedicated to my father.
I love you Dad, I miss you so much.
My life without you is only an half of what it was.
We'll be "father and son, home again" and we'll love each other like always.
I'm sure.


_Ozzy
geomscortichini@interfree.it
Добавлено: 04.04.2012
Другие материалы по этой песне:
  • Аккорды и текст

Страница создана 04.04.2012
http://primanota.ru/adrian-belew/the-man-in-the-moon-chords.htm
Привет, Гость.
Предлагаем пройти революционный курс по гитаре.
Подарок от PrimaNota.Ru, забирай!