PrimaNota.ru - самый крупный в мире бесплатный архив песенных текстов, аккордов, табулатур и нот


Adrian Barilari - Para Estar Contigo - таба, видео

Регистрация Запомнить меня
Войти через:  Facebook Google Twitter Vk Yandex Mail.ru

Adrian Barilari - Para Estar Contigo - таба, видео

Печатать
Просмотров: 57
C#m          E
   Espérame nena
 Asus2       E
cuéntame que te hizo el
C#m          E
  levántate nena
Asus2               E
no esta tan mal tu corazón
Asus2         E
ya paso termino
Asus2       E
tu destino cambia hoy
D
ven conmigo no lo dudes
B
déjame enseñarte hoy


E             Asus2  B          E
Soy el que pretende estar con vos
E           Asus2  B    E
espero que sientas como yo
E             Asus2  B      E
hice una gran fila  por llegar
E          Asus2    B       E
solo para estar al fin con voz


C#m         E
Aprende confía en ti
Asus2         E
y a la sima llegaras
C#m          E
vamos!!! despierta ya
Asus2            E
que te importan los demás
    Asus2      E
deja ya de sufrir
Asus2        E
ese amor se termino
D
Ven conmigo no lo dudes
B
déjame abrazarte hoy


E             Asus2  B          E
Soy el que pretende estar con vos
E           Asus2  B    E
espero que sientas como yo
E             Asus2  B      E
hice una gran fila  por llegar
E          Asus2    B       E
solo para estar al fin con voz


C#m
Por que estar sola
          E
cuando podemos estar juntos
G5
se que tu me harás feliz

yo te enseñare a reír

SOLO:

E-----------------------------------4-2-4p2p0--0----
B-------5----------------------5----5--------0-0----
G-1-2h4---6-4-4-4---4----1-2h4---6------------------
D-2-4h6---7-7-4-4h6-4h6--2-4h6---7------------------
A---------------------------------------------------
E-------------------------------------------------0-

E---------------------------------------------------
B-------5------7--9--9------------12-10-9-10-12-----
G-1-2h4---6---8---9--9----------9--------------9----
D-2-4h6---7--9----11-11-----9-11----------------11--
A-------------------------11------------------------
E---------------------------------------------------


E--4-2-4p2p0-(12)--------------
B--5---------(12)--------------
G-----------------11/13vvv-----
D------------------------------
A------------------------------
E------------------------------


    Asus2     E
Ya paso termino ,
Asus2       E
tu destino cambia hoy
D
Ven conmigo no lo dudes
B
déjame abrazarte hoy


G            Cadd9   D          G
Soy el que pretende  estar con vos
G          Cadd9   D     G
espero que sientas como yo
G            Cadd9  D           G
hice una gran fila solo por llegar
G            Cadd9    D        G
es solo para estar al fin con vos


E            Asus2   B         E
Soy el que pretende estar con vos
E           Asus2   B    E
espero que sientas como yo
E             Asus2  B           E
hice una gran fila  solo por llegar
E             Asus2    B       E
es solo para estar al fin con voz
E          Asus2    B       E
solo para estar al fin con vos ...


 Asus2    Cadd9
E-0---    E--3--
B-0---    B--3--
G-2---    G--0--
D-2----   D--2--
A-0----   A--3--
E-----    E-----

bueno lokos este es un temazo espero que les guste
cualquier duda mandenme un mail a pablo_13_7@
Добавлено: 28.05.2016
Другие материалы по этой песне:
  • Аккорды и текст

Страница создана 28.05.2016
http://primanota.ru/adrian-barilari/para-estar-contigo-chords.htm
Привет, Гость.
Предлагаем пройти революционный курс по гитаре.
Подарок от PrimaNota.Ru, забирай!