PrimaNota.ru - самый крупный в мире бесплатный архив песенных текстов, аккордов, табулатур и нот


Adrenalin Od - Suburbia - таба, видео

Регистрация Запомнить меня
Войти через:  Facebook Google Twitter Vk Yandex Mail.ru

Adrenalin Od - Suburbia - таба, видео

Печатать
Просмотров: 85
-------------------------------------------------------------------------------
                             Suburbia - Adrenalin O.D.
-------------------------------------------------------------------------------
              This is a tab of New Jersey punk band Adrenalin O.D. It's of their
"Lets Barbeque" 7inch ep. It's a easy song to play and It's played fast.

Tuning:Standard

Intro

e|------------|
B|------------|
G|------------|
D|-----11-----|
A|-----11-----|
E|-----9------|
                                                                                       x4
e|-------------------------------------------------------------------------------------|
B|-------------------------------------------------------------------------------------|
G|---------------------11-11-11-11-------------9-9-9-9---------------------------------|
D|-11-11-11-11-9-9-9-9-11-11-11-11-11-11-11-11-9-9-9-9-8-8-9-9-11-11-11-11-11-11-11-11-|
A|-11-11-11-11-9-9-9-9-9--9--9--9--11-11-11-11-7-7-7-7-8-8-9-9-11-11-11-11-11-11-11-11-|
E|-9--9--9--9--7-7-7-7-------------9--9--9--9----------6-6-7-7-9--9--9--9--9--9--9--9--|

                      x4
e|-------------------|
B|-------------------|
G|--------------9-9--|
D|--6-6-6-6-9-9-9-9--|
A|--6-6-6-6-9-9-7-7--|
E|--4-4-4-4-7-7------|

                                                                                       x4
e|-------------------------------------------------------------------------------------|
B|-------------------------------------------------------------------------------------|
G|---------------------11-11-11-11-------------9-9-9-9---------------------------------|
D|-11-11-11-11-9-9-9-9-11-11-11-11-11-11-11-11-9-9-9-9-8-8-9-9-11-11-11-11-11-11-11-11-|
A|-11-11-11-11-9-9-9-9-9--9--9--9--11-11-11-11-7-7-7-7-8-8-9-9-11-11-11-11-11-11-11-11-|
E|-9--9--9--9--7-7-7-7-------------9--9--9--9----------6-6-7-7-9--9--9--9--9--9--9--9--|

                      x4
e|-------------------|
B|-------------------|
G|--------------9-9--|
D|--6-6-6-6-9-9-9-9--|
A|--6-6-6-6-9-9-7-7--|
E|--4-4-4-4-7-7------|
                                                                                       x4
e|-------------------------------------------------------------------------------------|
B|-------------------------------------------------------------------------------------|
G|---------------------11-11-11-11-------------9-9-9-9---------------------------------|
D|-11-11-11-11-9-9-9-9-11-11-11-11-11-11-11-11-9-9-9-9-8-8-9-9-11-11-11-11-11-11-11-11-|
A|-11-11-11-11-9-9-9-9-9--9--9--9--11-11-11-11-7-7-7-7-8-8-9-9-11-11-11-11-11-11-11-11-|
E|-9--9--9--9--7-7-7-7-------------9--9--9--9----------6-6-7-7-9--9--9--9--9--9--9--9--|

Outro

e|---------------------------------------------------------|
B|---------------------------------------------------------|
G|--9-9-9-9----------9-9-9-9----------9-9-9-9--------------|
D|--9-9-9-9-8-8-9-9--9-9-9-9-8-8-9-9--9-9-9-9-8-8-9-9--11--|
A|--7-7-7-7-8-8-9-9--7-7-7-7-8-8-9-9--7-7-7-7-8-8-9-9--11--|
E|----------6-6-7-7----------6-6-7-7----------6-6-7-7--9---|


************************************

| /   slide up
| \   slide down
| h   hammer-on
| p   pull-off
| ~   vibrato
| +   harmonic
| x   Mute note
| b   Bend
| pb  Pre-bend
| br  Bend release
| pbr Pre-bend release
| brb Bend release bend

************************************

Links to band Social websites:
http://www.facebook.com/adrenalin.od
http://www.myspace.com/adrenalinod

I'll even put a link to the song:
http://www.youtube.com/watch?v=jV6aNl-Siqo
Добавлено: 08.12.2013
Вам также может быть интересно:
Другие материалы по этой песне:
  • Аккорды и текст

Страница создана 08.12.2013
http://primanota.ru/adrenalin-od/suburbia-chords.htm
Привет, Гость.
Предлагаем пройти революционный курс по гитаре.
Подарок от PrimaNota.Ru, забирай!