PrimaNota.ru - самый крупный в мире бесплатный архив песенных текстов, аккордов, табулатур и нот


Adolescents - Richard Hung Himself - таба, видео

Регистрация Запомнить меня
Войти через:  Facebook Google Twitter Vk Yandex Mail.ru

Adolescents - Richard Hung Himself - таба, видео

Печатать
Просмотров: 95
-------------------------------------------------------------------------------
Richard Hung Himself - The Adolescents
The Complete Demos 1980-1986
-------------------------------------------------------------------------------
Tabbed by: Matthew Holmes
Email: holmzito@yahoo.com

Tuning:EADGBE (standard)

e|-----------------------------------|
B|-----------------------------------|
G|---4---5---------------------------|
D|---2-4-3-5-.-.-.-.-.-.-.-.-.-.-.-.-|
A|-----4---3-4-4-4-4-7-7-7-7-6-6-6-6-|
E|-----------2-2-2-2-5-5-5-5-4-4-4-4-|

e|------------------------------------------|
B|-------5----------------------------------|
G|---4---5----------------------------------|
D|---2-4-3-5-.-.-.-.-.-.-.-.-.-.-.-.--------|
A|-----4---3-4-4-4-4-7-7-7-7-6-6-6-6-2-2-3-3|
E|-----------2-2-2-2-5-5-5-5-4-4-4-4-0-0-1-1|

e|--------------------------------|
B|--------------------------------|
G|--------------------------------|
D|--------------------------------| Play 4 Times
A|-4--4-4-7-7-7-7-6-6-6-6-2-2-3-3-|
E|-2--2-2-5-5-5-5-4-4-4-4-0-0-1-1-| 

e|----------------------------------------------|
B|----------------------------------------------|
G|----------------------------------------------|
D|----------------------------------------------|
A|-4--4-4-2-2-3-3-4--4-4-4-4-4-4-2--2-2-2-2-2-2-|
E|-2--2-2-0-0-1-1-2--2-2-2-2-2-2-0--0-0-0-0-0-0-|

e|-----------------|
B|-----------------|
G|-----------------|
D|-----------------| Play Twice
A|-4-4-3-3-2-2-3-3-|
E|-2-2-1-1-0-0-1-1-|

e|--------------------------------|
B|--------------------------------|
G|--------------------------------|
D|--------------------------------| Play 4 Times
A|-4--4-4-7-7-7-7-6-6-6-6-2-2-3-3-|
E|-2--2-2-5-5-5-5-4-4-4-4-0-0-1-1-| 

e|----------------------------------------------|
B|----------------------------------------------|
G|----------------------------------------------|
D|----------------------------------------------|
A|-4--4-4-2-2-3-3-4--4-4-4-4-4-4-2--2-2-2-2-2-2-|
E|-2--2-2-0-0-1-1-2--2-2-2-2-2-2-0--0-0-0-0-0-0-|

e|-----------------|
B|-----------------|
G|-----------------|
D|-----------------| Play Twice
A|-4-4-3-3-2-2-3-3-|
E|-2-2-1-1-0-0-1-1-|

e|----------------------------------------------------------|
B|----------------------------------------------------------|
G|-6-6--6--6-6-6-6-6-6--6--6-6-7-7--7--7-7-11-11--11--11-11-|
D|-4-4--4--4-4-4-4-5-5--5--5-5-8-8--8--8-8--9--9---9---9--9-| Play 3 Times
A|----------------------------------------------------------|
E|----------------------------------------------------------|

e|------------------------------------------|
B|------------------------------------------|
G|-6-6--6--6-6-6-6-6-6--6--6-6-7-7--7-7-7-7-|
D|-4-4--4--4-4-4-4-5-5--5--5-5-8-8--8-8-9-8-|
A|------------------------------------------|
E|------------------------------------------|

e|----------------------------------------------|
B|----------------------------------------------|
G|----------------------------------------------|
D|----------------------------------------------|
A|-4--4-4-2-2-3-3-4--4-4-4-4-4-4-2--2-2-2-2-2-2-|
E|-2--2-2-0-0-1-1-2--2-2-2-2-2-2-0--0-0-0-0-0-0-|

e|-----------------|
B|-----------------|
G|-----------------|
D|-----------------| Play Twice
A|-4-4-3-3-2-2-3-3-|
E|-2-2-1-1-0-0-1-1-|

e|---------------------------|
B|---------------------------|
G|---------------------------|
D|--------------4------------|
A|-4------------4------------|
E|-2------------2------------|

e|--------------------------------|
B|--------------------------------|
G|--------------------------------|
D|--------------------------------| Play 4 Times
A|-4--4-4-7-7-7-7-6-6-6-6-2-2-3-3-|
E|-2--2-2-5-5-5-5-4-4-4-4-0-0-1-1-| 

e|-2--------2-|
B|-2--------2-|
G|-2--------2-|
D|-2--------2-|
A|-2--------2-|
E|-2--------2-| 


| .  palm mute
| /  slide up
| \  slide down
| h  hammer-on
| p  pull-off
| ~  vibrato
| +  harmonic
| x  Mute note
===============================================================================
Добавлено: 23.06.2012
Другие материалы по этой песне:

Страница создана 23.06.2012
http://primanota.ru/adolescents/richard-hung-himself-chords.htm
Привет, Гость.
Предлагаем пройти революционный курс по гитаре.
Подарок от PrimaNota.Ru, забирай!