PrimaNota.ru - самый крупный в мире бесплатный архив песенных текстов, аккордов, табулатур и нот


Adolescents - Losing Battle - текст песни, бас-таба, видео

Регистрация Запомнить меня
Войти через:  Facebook Google Twitter Vk Yandex Mail.ru

Adolescents - Losing Battle - текст песни, бас-таба, видео

Печатать
Просмотров: 103
Авторы: Steve Soto, Frank Agnew, Tony Cadena

-------------------------------------------------------------------------------
                             Losing Battle - Adolescents
-------------------------------------------------------------------------------
Tabbed by: XOutOfStepX 


                                  Intro/Verse
G|---------------------------------------------------------------------------|
D|---------------------------------------------------------------------------|
A|---------------------------------------------------------------------------|  Repeat x2
E|--3-333-33--55--3--5--7-777-777-777-77--3-333-33--55--35--2-222-222-222--22| 

G|---------------------------------------------------------------------------|
D|---------------------------------------------------------------------------|
A|-------------333--2-22-----------------------------------------------------|  Repeat x3
E|--333--2-22----------------------------------------------------------------|

G|---------------------------------------------------------------------------|
D|---------------------------------------------------------------------------|
A|--2-222-222-22--35-2-222-222-222-222-222-222-22-35-2-222-222-222-----------|
E|------------------------------------------------------------------2-22-22--|

G|---------------------------------------------------------------------------|
D|----------------------3-33-333--2-22-222-----------------------------------|
A|--3-33-333--2-22-222-------------------------------------------------------|  Repeat x3
E|---------------------------------------------------------------------------|

G|---------------------------------------------------------------------------|
D|----------------------3-33-333---------------------------------------------|
A|--3-33-333--2-22-222-------------------------------------------------------|
E|---------------------------------------------------------------------------|

G|---------------------------------------------------------------------------|
D|---------------------------------------------------------------------------|
A|---------------------------------------------------------------------------|  Repeat x2
E|--3-333-33--55--3--5--7-777-777-777-77--3-333-33--55-35--2-222-222-222--22-|

G|---------------------------------------------------------------------------|
D|---------------------------------------------------------------------------|
A|-------------333--2-22-----------------------------------------------------|
E|--333--2-22----------------------------------------------------------------|  Repeat x4
  
G|---------------------------------------------------------------------------|
D|---------------------------------------------------------------------------|
A|---------------------------------------------------------------------------|
E|--3-333-33--55--3--5--7-777-777-777----------------------------------------|


===============================================================================
Добавлено: 26.07.2015
Другие материалы по этой песне:
  • Аккорды и текст

Страница создана 14.05.2012
http://primanota.ru/adolescents/losing-battle-chords.htm
Привет, Гость.
Предлагаем пройти революционный курс по гитаре.
Подарок от PrimaNota.Ru, забирай!