PrimaNota.ru - самый крупный в мире бесплатный архив песенных текстов, аккордов, табулатур и нот


Adolescents - Amoeba - аккорды и текст, таба, бас-таба, видео

Регистрация Запомнить меня
Войти через:  Facebook Google Twitter Vk Yandex Mail.ru

Adolescents - Amoeba - аккорды и текст, таба, бас-таба, видео

Печатать
Просмотров: 259
Авторы: Rikk Agnew, Casey Royer

Amoeba
Adolescents
INTRO             x4
e-------------------|----------
B-------------------|----------
G-11-12-9-9-9-9-9-9-|-8-8-8-8--  ALL x2
D-x---x-x-x-x-x-x-x-|-x-x-x-x--  
A-9--10-7-7-7-7-7-7-|-6-6-6-6--
E-------------------|----------
 
VERSE (B5 A5 G#5) x4


PRE-CHORUS (A5 E5 G#5 A5 E5 G#5) x1


CHORUS (Same as INTRO)

SOLO 1 ( Strum Note x8)
e-------------------------------------------------------
B-------------------------------------------------------
G-11-12--9-11-12-14--16-14-12-14-12-11-12-11-9-7-9--
D--x--x--x--x--x--x---x--x--x--x--x--x--x--x-x-x-x--
A--9-10--7--9-10-12--14-12-10-12-10--9-10--9-7-5-7--
E-------------------------------------------------------
                   
e-15-14-12----12-14-15-14-12----12-15p12----12----------
B----------15----------------15----------15----15-12----
G-------------------------------------------------------
D-------------------------------------------------------
A-------------------------------------------------------
E-------------------------------------------------------

e-------------12-14-12----12-14-15-14-12----12----------
B-14-15-14-15----------15----------------15----15-14-12-
G-------------------------------------------------------
D-------------------------------------------------------
A-------------------------------------------------------
E-------------------------------------------------------

-----15p12----12---------------------------------------------------
-15b-------15------------------------------------------------------
-----------------14p12-14p12-14p12-14p12-14p12---------------------
-----------------------------------------------14p12---------------
-----------------------------------------------------14p12---------
-----------------------------------------------------------12/0----


VERSE (B5 A5 G#5) x4


PRE-CHORUS (A5 E5 G#5 A5 E5 G#5) x1


CHORUS (Same as INTRO)

SOLO 2
--------------------------------------------------------------------15brp12-
-12--12--12--12--12-----------------------------------------15brp12---------
-14b-14b-14b-14b-14b-14b-14-12-----------12---12-14-14brp12-----------------
-------------------------------14--12-14---14-------------------------------
----------------------------------------------------------------------------
----------------------------------------------------------------------------

-14-12-----------------------------------
------15-14-12-15b15b15b15brp12----------
--------------------------------14b------
-----------------------------------------
-----------------------------------------
-----------------------------------------

-----------------------------------------
-----------------------------------------
-----------------------------------------
-----------------------------------------
-----------------------------------------
-3~-5~-7~-9-11--13--15--17--19--21--21b--


Play Chorus until Song Ends
Добавлено: 14.01.2014
Другие материалы по этой песне:

Страница создана 21.02.2012
http://primanota.ru/adolescents/amoeba-chords.htm
Привет, Гость.
Предлагаем пройти революционный курс по гитаре.
Подарок от PrimaNota.Ru, забирай!