PrimaNota.ru - самый крупный в мире бесплатный архив песенных текстов, аккордов, табулатур и нот


Adlers Appetite - Hollywood - таба, видео

Регистрация Запомнить меня
Войти через:  Facebook Google Twitter Vk Yandex Mail.ru

Adlers Appetite - Hollywood - таба, видео

Печатать
Просмотров: 134
You will need: Les Paul and a Marshall!


Intro is the bass playing open E(Eb)
Eb|---------------|----------------|      |----------------|
Bb|---------------|----------------|      |----------------|
Gb|---------------|----------------|      |----------------|
Db|---------------|----------2-2-4-| then |-2--4--6--4--2--|
Ab|-2-2-4--x-x-x--|-2--2-4---0-0-2-|      |-0--2--4--2--0--|
Eb|-0-0-2--x-x-x--|-0--0-2---------|      |----------------|

Verse is the above, then the part that leads into the chorus

Chorus
|----------------|----------------------|-------------------|
|----------------|----------------------|-------------------|
|----------------|----------------------|-------------------|
|----------------|----------------------|-7--6--4--2------2-|
|--10------------|-6----8----------6--10|-5--4--2--0--2-4---|
|--8-------------|-4----6----6-6-8-----8|-------------------|

Bridge into Solo
|------------------|----------------|
|------------------|----------------|
|------------------|----------------|
|-4-4-4-4----------|-6-8---10-8--6--|
|-2-2-2-2----------|-4-6---8--6--4--|

Then Quick Solo over this, will tab full one later, but just improvise, it's easy.

Two guitars in harmony (oh yes)
|---------------------------|    Then it goes back into a verse and
|---------------------------|    quite a few choruses to finish!
|---6-5--/8---5-------------|    Rock on people!
|---------------8--6---2-4-6|
|---------------------------|
|---------------------------|
Добавлено: 09.05.2012
Вам также может быть интересно:
Другие материалы по этой песне:
  • Аккорды и текст

Страница создана 09.05.2012
http://primanota.ru/adlers-appetite/hollywood-chords.htm
Привет, Гость.
Предлагаем пройти революционный курс по гитаре.
Подарок от PrimaNota.Ru, забирай!