PrimaNota.ru - самый крупный в мире бесплатный архив песенных текстов, аккордов, табулатур и нот


Adicts - This Week - текст песни, таба, бас-таба, видео

Регистрация Запомнить меня
Войти через:  Facebook Google Twitter Vk Yandex Mail.ru

Adicts - This Week - текст песни, таба, бас-таба, видео

Печатать
Просмотров: 158
Ebm            B
Monday morning got that feeling
Ebm               B
Tuesday better be more revealing
B         C#      Ebm
Wednesday halfway there
B        C#     Ebm
Thursday we get paid
Ebm             B
Friday, another boring day
Ebm         B
Saturday no work, we play
B  C#     Ebm 
Sunday we pray
B     C#     Ebm
Seven days a week, this week

Intro
e|-|-------6----------6-----6----------6-----6----------6---------------|-|
B|-|-----------7---7--7---------7---7--5---------7---7--7---------------|-|
G|-|-----8-------8----8---8-------8----8---8-------8----8---------------|-|
D|-|---8--------------8-8--------------8-8--------------8---------------|-|
A|-|-6-------6--------6-------6--------6-------6--------6-------6-------|-|
E|-|-----7-------7--------7-------7--------7-------7--------7-------7---|-| <<< bass line (and general rhythm)
     1 2 3 4 1 2 3 4  1 2 3 4 1 2 3 4  1 2 3 4 1 2 3 4  1 2 3 4 1 2 3 4

Pre-Verse
e|-|--------------------------------------------------------------------|-|
B|-|--------------------------------------------------------------------|-|
G|-|--------------------------------------------------------------------|-|
D|-|--------------------------------------------------------------------|-|
A|-|-6-------6--------6-------6--------6-------6--------6-------6-------|-|
E|-|-----7-------7--------7-------7--------7-------7--------7-------7---|-|
     1 2 3 4 1 2 3 4  1 2 3 4 1 2 3 4  1 2 3 4 1 2 3 4  1 2 3 4 1 2 3 4
         
Verse
e|-|---------------------------------------------------|-|
B|-|---------------------------------------------------|-|
G|-|-8-------8----------------8----------------8-------|-|
D|-|-8---9---8---9----9---11--8--------9---11--8-------|-|
A|-|-6---9---6---9----9---11--6--------9---11--6-------|-|
E|-|-----7-------7----7---9------------7---9-----------|-|
     1 2 3 4 1 2 3 4  1 2 3 4 1 2 3 4  1 2 3 4 1 2 3 4 
         
Solo
e|-|-6-----------------------------------6-----6/11-----11\6--------6-------|-|
B|-|----------7-------6h7p67p6----------------------------------------------|-|
G|-|----------------------------8-------------------------------------------|-|
D|-|------------------------------------------------------------------------|-|
A|-|-6-----------------6-----------------6-----------------6----------------|-|
E|-|----------7-----------------7-----------------7-----------------7-------|-|
     1 2 3 4  1 2 3 4  1 2 3 4  1 2 3 4  1 2 3 4  1 2 3 4  1 2 3 4  1 2 3 4

e|-|-6----------------------------------------------------------------------|-|  
B|-|----------7--------6h7p67p6-----6----6h7p67p6-9---6-------(6)-----------|-|  
G|-|----------------------------8--------------------------8-------(8)------|-|  
D|-|------------------------------------------------------------------------|-|
A|-|-6-----------------6-----------------6-----------------6----------------|-|
E|-|----------7-----------------7-----------------7-----------------7-------|-|
     1 2 3 4  1 2 3 4  1 2 3 4  1 2 3 4  1 2 3 4  1 2 3 4  1 2 3 4  1 2 3 4
Добавлено: 28.05.2016
Другие материалы по этой песне:
  • Аккорды и текст

Страница создана 12.05.2012
http://primanota.ru/adicts/this-week-chords.htm
Привет, Гость.
Предлагаем пройти революционный курс по гитаре.
Подарок от PrimaNota.Ru, забирай!