PrimaNota.ru - самый крупный в мире бесплатный архив песенных текстов, аккордов, табулатур и нот


Adicts - Ode To Joy - таба, видео

Регистрация Запомнить меня
Войти через:  Facebook Google Twitter Vk Yandex Mail.ru

Adicts - Ode To Joy - таба, видео

Печатать
Просмотров: 138
Song:Ode To Joy
Album:Smart Alex
Artist:The Adicts
Year:1985
Tuning:Standard (E,A,D,G,B,E)

Intro Pt. 1
E-------|
B-------|
G-------|
D-------|
A-5-~~--|
E-------|

Intro Pt. 2
E-------------------------------------------|
B-------------------------------------------|
G-----------------------------------5--7~~--|
D-----------------------------------5--7~~--|
A-9-9-10-12-12-10-9-7-5-5-7-9-9-7-7-3--5~~--|
E-------------------------------------------|

Chorus 1(Part 1)
E---------------------------------|
B---------------------------------|
G-7-7-7-7-7-7-7-7--6----4----2----|
D-7-7-7-7-7-7-7-7--6x8--4x8--2x8--|  x2
A-5-5-5-5-5-5-5-5--4----2----0----|
E---------------------------------|

Chorus 1(Part 2)
E-------|
B-------|
G-------|
D-7-----|
A-7X30--|
E-5-----|

Chorus 2 Pt1
E---------------------|
B---------------------|
G---------------------|
D---------------------|
A-5~~--4~~--2~~--0~~--|
E---------------------|

Chorus 2 Pt2
E-------|
B-------|
G-------|
D-7-----|
A-7x30--|
E-5-----|

Final Chorus
E---------------------|
B---------------------|
G-7----6----4----2----|
D-7x8--6x8--4x8--2x8--|
A-5----4----2----0----|
E---------------------|

Whole Violin Part
E-------------------------------------|
B-------------------------------------|
G-------------------------------------|
D-------------------------------------|
A-9-9-10-12-12-10-9-7--5-5-7-9-9-7-7--|
E-------------------------------------|

E------------------------------------|
B------------------------------------|
G------------------------------------|
D------------------------------------|
A-9-9-10-12-12-10-9-7-5-5-7-9-7-5-5--|
E------------------------------------|

E------------------------------------------------------|
B------------------------------------------------------|
G------------------------------------------------------|
D------------------------------------------------------|
A-7-7-9-5--7-9-10-9-5--7-9-10-9-5---7-9-10-9--7-5-7----|
E---------------------------------------------------7--|

E--------------------------------------|
B--------------------------------------|
G--------------------------------------|
D--------------------------------------|
A-9-9-10-12-12--10-9-7--5-5-7-9-7-5-5--|
E--------------------------------------|

Song Structure:
-Intro Pt1 x1

-Intro Pt2 x4

-Chorus 1 Pt1 x2

-Chorus 1 Pt2 x1

-Chorus 1 Pt1 x1

-Chorus 2 Pt1 x2

-Chorus 2 Pt2 x1

-Final Chorus x3
Добавлено: 01.11.2013
Другие материалы по этой песне:
  • Аккорды и текст

Страница создана 31.08.2013
http://primanota.ru/adicts/ode-to-joy-chords.htm
Привет, Гость.
Предлагаем пройти революционный курс по гитаре.
Подарок от PrimaNota.Ru, забирай!