PrimaNota.ru - самый крупный в мире бесплатный архив песенных текстов, аккордов, табулатур и нот


Adicts - Dynasty - таба, видео

Регистрация Запомнить меня
Войти через:  Facebook Google Twitter Vk Yandex Mail.ru

Adicts - Dynasty - таба, видео

Печатать
Просмотров: 171
Band:Adicts
Song:Dynasty

tabbed by jam9383@yahoo.com


Intro

e----------8-------------8--------------------------------------------|
B--7-------------7----------------7---------5~------------------------|
G---------------------------------------------------------------------|
D---------------------------------------------------------------------|
A---------------------------------------------------------------------|
E---------------------------------------------------------------------|

Verse

e---------------------------------------------------------------------|
B---------------------------------------------------------------------|
G------------5-5-5-5-5-5-4-4-4-4-4-4-2-2-2-2-2------------------------|
D--4-4-4-4-4-5-5-5-5-5-5-4-4-4-4-4-4-2-2-2-2-2------------------------|
A--4-4-4-4-4-3-3-3-3-3-3-2-2-2-2-2-2-0-0-0-0-0------------------------|
E--2-2-2-2-2----------------------------------------------------------|


e---------------------------------------------------------------------|
B---------------------------------------------------------------------|
G------11---x-x-x--------------11-------------x--x-x------------------|
D------11---x-x-x--------------11-------------x--x-x------------------|
A------9----x-x-x--------------9--------------x--x-x------------------|
E---------------------------------------------------------------------|

Chorus

e---------------------------------------------------------------------|
B---------------------------------------------------------------------|
G----7-7-7-7-7-9-9-9-9-9----------------------------------------------|
D----7-7-7-7-7-9-9-9-9-9--7-7-7-7-7-7---------------------------------|
A----5-5-5-5-5-7-7-7-7-7--7-7-7-7-7-7---------------------------------|
E-------------------------5-5-5-5-5-5---------------------------------|

second guitar
e---------------------------------------------------------------------|
B--12b-10-9~-------------------12b-r-12b-r-12br--12br-----------------|
G---------------------------------------------------------------------|
D---------------------------------------------------------------------|
A---------------------------------------------------------------------|
E---------------------------------------------------------------------|

Solo
    12br is done more than twice
e---------------------|------------------------------------------------|
B-12b-r-12-b-r--10----|---7h9h10-7h9h10--7h9h10-9-10-10-9~/------------|
G---------------------|------------------------------------------------|
D---------------------|------------------------------------------------|
A---------------------|------------------------------------------------|
E---------------------|------------------------------------------------|


If any corrections are needed contact me and rate tabs
Добавлено: 28.02.2012
Другие материалы по этой песне:
  • Аккорды и текст

Страница создана 28.02.2012
http://primanota.ru/adicts/dynasty-chords.htm
Привет, Гость.
Предлагаем пройти революционный курс по гитаре.
Подарок от PrimaNota.Ru, забирай!