PrimaNota.ru - самый крупный в мире бесплатный архив песенных текстов, аккордов, табулатур и нот


Adhitia Sofyan - Adelaide Sky - таба, видео

Регистрация Запомнить меня
Войти через:  Facebook Google Twitter Vk Yandex Mail.ru

Adhitia Sofyan - Adelaide Sky - таба, видео

Печатать
Просмотров: 85
-----------------------------------------------------------------------------
Adelaide Sky - Adhitia Sofyan
-----------------------------------------------------------------------------

Email: ellis2014@yahoo.com
Contact me with any additions/revisions you might have in mind.

Tuning: Standard
Half Step Down (Eb G# C# F# Bb Eb)

| / Slide up
| \ Slide down
| * Play notes softly/faintly
|** Let notes ring

Chords:
Fret 1          Fret 1          Fret 5          Fret 7          Fret 3
e|---|-x-|---   e|---|-x-|---   e|-x-|---|---   e|-x-|---|---   e|-x-|---|---
B|---|---|-x-   B|---|---|-x-   B|---|---|---   B|---|---|---   B|---|---|---
G|---|---|---   G|---|---|---   G|---|---|-x-   G|---|---|-x-   G|---|---|-x-
D|---|---|---   D|---|---|---   D|---|---|-x-   D|---|---|-x-   D|---|---|-x-
A|---|---|---   A|---|-x-|---   A|---|---|---   A|---|---|---   A|---|---|---
E|---|---|-x-   E|---|---|---   E|---|---|-x-   E|---|-x-|---   E|---|---|-x-

Fret 4          Fret 7          Fret 5          Fret 5
e|---|---|---   e|-x-|---|---   e|-x-|---|---   e|---|---|---
B|---|-x-|---   B|---|-x-|---   B|---|---|-x-   B|-x-|-x-|---
G|---|-x-|---   G|---|---|---   G|---|---|---   G|---|---|---
D|---|-x-|---   D|---|---|-x-   D|---|---|-x-   D|---|---|-x-
A|---|-x-|---   A|---|---|---   A|---|---|---   A|---|---|---
E|---|---|---   E|---|-x-|---   E|---|---|-x-   E|---|-x-|---

Intro:
e|------------2-------0-----2-----2--------5------5-----7-------------------|
B|------------3----*3-------3-----3-3/7----0------0-----0---3\--------------|
G|------------0------0------0-----0------------*7----------7----------------|
D|-----------------------------------------------7--------------------------|
A|------------------------2-----2-------------------------------------------|
E|----------3-----3-----------------------7----7------7---7-----------------|

e|------------2-------0-----2-----2--------5------5-----7-------------------|
B|------------3-----3-------3-----3-3/7----0------0-----0---3\--------------|
G|------------0------0------0-----0-------------7----------7----------------|
D|-----------------------------------------------7--------------------------|
A|------------------------2-----2-------------------------------------------|
E|----------3-----3-----------------------7----7------7---7-----------------|

(Repeat for verses)

I need to know what's on your mind
These coffee cups are getting cold
Mind the people passing by
They don't know I'll be leaving soon

Pre-Chorus:
e|-----------7------------5------------7------------5-----------------------|
B|-----------0------------0------------0------------0-----------------------|
G|----------------9-9----------7-7----------9-9----------7-7----------------|
D|-----------------9------------7------------9------------7-----------------|
A|--------------------------------------------------------------------------|
E|----------8----8-------7----7-------8----8-------7----7-------------------|

e|----------7------------5--------------3---3-------------------------------|
B|----------0------------0--------------0---0-------5---5-------------------|
G|---------------9-9----------7-7-------5---5-------5---5-------------------|
D|----------------9------------7--------5---5-------5---5-------------------|
A|-------------------------------------------------5---5--------------------|
E|---------8----8-------7----7---------5---5--------------------------------|


I'll fly away tomorrow
To far away
I'll admit a cliché
Things won't be the same without you

Chorus:
e|------------2-------2-----2-------2-----7-------7-----7-------7-----------|
B|------------3----*3-------3----*3-------0-------0-----0-------0-----------|
G|------------0------0------0------0-----------*7------------*7-------------|
D|-----------------------------------------------7-------------7------------|
A|--------------------------------------------------------------------------|
E|----------3-----3-------3-----3-------8-----8-------8-----8---------------|

e|------------5-------5-----5-------5-----3-------3-------------------------|
B|------------0-------0-----0-------0-----0-------0-----5-------5-----------|
G|------------7----*7-------7----*7-------5----*5-------5-----5-------------|
D|-------------------7-------------7-------------5------5------5------------|
A|----------------------------------------------------5-----5---------------|
E|----------7-----7-------7-----7-------5-----5-----------------------------|
  x2

I'll be looking at my window seeing Adelaide sky
Would you be kind enough to remember
I'll be hearing my own foot steps under Adelaide sky
Would you be kind enough to remember me

(Verse)
I'll let you know what's on my mind
I wish they've made you portable
Then I'll carry you around and round
I bet you'll look good on me

(Pre-Chorus)
I'll fly away tomorrow
It's been fun
I'll repeat the cliché
Things won't be the same without you

(Chorus)
I'll be looking at my window seeing Adelaide sky
Would you be kind enough to remember
I'll be hearing my own foot steps under Adelaide sky
Would you be kind enough to remember me

Bridge:
e|--------------------------7-------------------------5---------------------|
B|-------------8-------8----8----8-------7-------7----7----7----------------|
G|-------------0----*0------0----0-------0----*0------0----0----------------|
D|-------------9------9----------9-------7------7----------7----------------|
A|--------------------------------------------------------------------------|
E|-----------8-----8------8----8-------7-----7------7----7------------------|
  x2

e|--------------------------------------------------------------------------|
B|-------------6-------6----6-------6----5-------5----5-------5-------------|
G|-------------0----*0------0----*0------0----*0------0----*0---------------|
D|-------------7------7-----7------7-----7------7-----7------7--------------|
A|--------------------------------------------------------------------------|
E|-----------6-----6------6----6-------6-----6------6-----6-----------------|

e|--------------------------------------------------------------------------|
B|-------------6-------6----6-------6----8-------8---10**-------------------|
G|-------------0----*0------0----*0------7----*7------9**-------------------|
D|-------------7------7-----7------7-----0------0-----0**-------------------|
A|--------------------------------------------------------------------------|
E|-----------6-----6------6----6-------8-----8-----10-----------------------|

I've been meaning to call you soon
But we're in different times
You might not be home now
Would you take a message
I'll try to stay awake
And fight your presence in my head

(Chorus - strum chords for first line, fade in for second)
I'll be looking at my window seeing Adelaide sky
Would you be kind enough to remember
I'll be hearing my own foot steps under Adelaide sky
Would you be kind enough to remember me
x2


-----------------------------------------------------------------------------------
For a full video tutorial by Adhitia Sofyan, visit http://
adhitiasofyan.wordpress.com/2009/04/12/adelaide-sky-guitar-video-tutorial/
----------------------------------------------------------------------------
-----------------------------------------------------------------------------

Most likely not a perfect tab, but it's definitely close. Hopefully you can take 
what's here and kind of improv your own. That's always the best kind.

Thanks, good luck!

- Jake
Добавлено: 11.07.2013
Другие материалы по этой песне:
  • Аккорды и текст

Страница создана 11.07.2013
http://primanota.ru/adhitia-sofyan/adelaide-sky-chords.htm
Привет, Гость.
Предлагаем пройти революционный курс по гитаре.
Подарок от PrimaNota.Ru, забирай!