PrimaNota.ru - самый крупный в мире бесплатный архив песенных текстов, аккордов, табулатур и нот


Adhd - Train Wreck - таба, видео

Регистрация Запомнить меня
Войти через:  Facebook Google Twitter Vk Yandex Mail.ru

Adhd - Train Wreck - таба, видео

Печатать
Просмотров: 88
Уроки эстрадного вокала в Санкт-Петербурге
"Train Wreck" by ADHD

www.ADHDrock.com

 

 

Drop D Tuning:

 

Intro:

Repeat 4x

E--------------------------------------------------------------------

B--------------------------------------------------------------------

G---7-7-7-7-14-14-10-10-10-10-12-12----------------------------------

D--------------------------------------------------------------------

A---5-5-5-5-12-12--8--8--8--8-10-10----------------------------------

D--------------------------------------------------------------------

 

At the beginning of the 3rd time this progression is repeated guitar 2
comes in

distorted, P.M'd, and with a phaser doing a build on the low d string. 

 

Verse w/ Phaser:

Repeat 4x

E--------------------------------------------------------------------

B--------------------------------------------------------------------

G--------------------------------------------------------------------

D--------------------------7-------8---------------------------------

A-------7-8-------8-7--------8-------7-------------------------------

D---0-0-------0-0------0-0-----0-0-----------------------------------

 

Repeat 4x

--------------------------------------------------------------------

--------------------------------------------------------------------

--------------------------------------------------------------------

------------7-------8-------7---------------------------------------

--------7-8---8-7-8---8-7-8---8-7-8---------------------------------

----0-0-------------------------------------------------------------

 

C this part 4 times, halfway through the 4th time through, go nuts
between the

7th and 8th frets doing a build-up to the high e string. Once you hit the
high C

on the high e string, slide all the way up the neck.

 

On top of the second half of the verse is:

 

P.M.

--------------------------------------------------------------------

--------------------------------------------------------------------

--------------------------------------------------------------------

----0-0-0-0-0-0-0-0-8-8-8-8-7-7-7-7---------------------------------

----0-0-0-0-0-0-0-0-8-8-8-8-7-7-7-7---------------------------------

----0-0-0-0-0-0-0-0-8-8-8-8-7-7-7-7---------------------------------

 

Chorus:

Repeat 2x

--------------------------------------------------------------------

--------------------------------------------------------------------

--------------------------------------------------------------------

----0-0-0-0-7-7-3-3-3-3-5-5-5-------0-0-0-0-7-7-3-3-3-3-5--5--------

----0-0-0-0-7-7-3-3-3-3-5-5-5-------0-0-0-0-7-7-3-3-3-3-5--5--------

----0-0-0-0-7-7-3-3-3-3-5-5-5-------0-0-0-0-7-7-3-3-3-3-5--5--------

 

 

Hope this helps, the breakdown is kind of weird and I'm not going to
attempt

to tab it - good luck to anyone who tries.  This transcription is all my
own work.

 

www.adhdrock.com

 

-Fishkin


     
Добавлено: 25.08.2013
Вам также может быть интересно:
Другие материалы по этой песне:
  • Аккорды и текст

Страница создана 25.08.2013
http://primanota.ru/adhd/train-wreck-chords.htm
Привет, Гость.
Предлагаем пройти революционный курс по гитаре.
Подарок от PrimaNota.Ru, забирай!