PrimaNota.ru - самый крупный в мире бесплатный архив песенных текстов, аккордов, табулатур и нот


Adestria - With The Wind At Your Back - таба, видео

Регистрация Запомнить меня
Войти через:  Facebook Google Twitter Vk Yandex Mail.ru

Adestria - With The Wind At Your Back - таба, видео

Печатать
Просмотров: 139
www.Adestria.com

-----------------------------------------------------------------
With the Wind at Your Back- Adestria
-----------------------------------------------------------------
Tabbed by: Russell Klein
Guitarss33@hotmail.com
Tuning: Drop D
Some small details aren't included that you can easily figure out by listening to 
the song, but if something is wrong or doesn't sound right let me know.
Guitar 1                                   
                           1st and 3rd    2nd                
e|-------------------------- -------- ---------|
B|-------------------------- -------- ---------|
G|-------------------------- -------- ---------|
D|----7-8-0-5-7-0-7-0-7-5-0- -------- ---------|
A|--5----------------------- 8-0-7-8- -8-7-3-5-|
D|-------------------------- -------- ---------|

     4th time through
e|---------------------------------------------------------------|
B|---------------------------------------------------------------|
G|--------------------------7-6-7-9------------------------------|
D|----7-8-0-5-7-0-8-0-8-7-8--------------------------------------| x2
A|--5------------------------------------------------------------|
D|---------------------------------------------------------------|

Guitar 2
e|---------------------------------------------------------------|
B|---------------------------------------------------------------|
G|---------------------------------------------------------------|
D|---------------------------------------------------------------|
A|---------------------------------------------------------------| x2
D|-000000000000000000000000000088888888888888888877777773333333--|

Guitar 2
e|---------------------------------------------------------------|
B|---------------------------------------------------------------|
G|---------------------------------------------------------------|
D|---------------------------------------------------------------| x2
A|--0--0-0-0-------0--0-0-00-1-----------------------------------|
D|--0--0-0-0-------0--0-0-00-0-----------------------------------|
    x  x x x       x  x x xx x
Both guitars play twice for breakdown
 
Chorus (Both guitars)
e|---------------------------------------------------------------|
B|---------------------------------------------------------------|
G|---------------------------------------------------------------|
D|---8-8-8-8-8-8-8-10101010101010--5-5-5-5-5-5-5-7-7-7-7-7-7-7---|
A|---8-8-8-8-8-8-8-8-8-8-8-8-8-8---5-5-5-5-5-5-5-5-5-5-5-5-5-5---|
D|---8-8-8-8-8-8-8-8-8-8-8-8-8-8---5-5-5-5-5-5-5-5-5-5-5-5-5-5---|

e|---------------------------------------------------------------|
B|---------------------------------------------------------------|
G|----------------------7-------------------7h8p7----------------|
D|--0000000---------7-8---8-7----0000-0-00--------8-7------------|
A|--0000000-----5-8-----------8--0000-0-00------------8-5--------| x2
D|--0000000----------------------0000-0-00-----------------------|
    xxxxxxx                      xxxx x xx    
e|---------------------------------------------------------------|
B|---------------------------------------------------------------|
G|---------------------------------------------------------------|
D|---8-8-8-8-8-8-8-10101010101010---------------------------5--5-|
A|---8-8-8-8-8-8-8-8-8-8-8-8-8-8---5-5-5-5-5-5-5-5-5-5-5-5--5--5-|
D|---8-8-8-8-8-8-8-8-8-8-8-8-8-8---5-5-5-5-5-5-5-5-5-5-5-5--5--5-|
                                   x x x x x x x x x x x x  

Both Guitars
                          1st & 3rd     2nd & 4th 
e|---------------------  -----------  -------------|
B|-----------------66--  -----------  -------------|
G|-----------------99--  -----------  -------------|
D|---------------------  ------3----  -------------|
A|--00--8-7-5-7--------  --3-5---5--  --------5-7--|
D|--00----------0------  0----------  --0-5-8------|
    xx          x        x              x
Both Guitars
e|---------------0000000000--------------0000000-000-------------|
B|---------------5555555555--------------5555555/666-------------|
G|---------------------------------------------------------------|
D|--0-0-0-0-0~---------------0-0-0-0-0~--------------------------|
A|--0-0-0-0-0~---------------0-0-0-0-0~--------------------------| 
D|--0-0-0-0-0~---------------0-0-0-0-0~--------------------------|
    x x x x                 x x x x 
e|---------------0000000000--------------------------------------|
B|---------------5555555555--------------------------------------|
G|---------------------------------------------------------------|
D|--0-0-0-0-0~---------------0-0-0-0-0---------------------------|
A|--0-0-0-0-0~---------------0-0-0-0-0---------------------------| 
D|--0-0-0-0-0~---------------0-0-0-0-0---------------------------|
    x x x x                  x x x x x

This breakdown is played multiple times, you can figure out when to hold it out by 
listening to the song.  It's not difficult.
e|---------------------------------------------------------------|
B|---------------------------------------------------------------|
G|---------------------------------------------------------------|
D|--0--0-0-00-00-0-0-----0--0-0-00-------------------------------|
A|--0--0-0-00-00-0-0-----0--0-0-00-000-00-00---------------------|
D|--0--0-0-00-00-0-0-----0--0-0-00-000-00-00---------------------|
    x  x x xx xx x x     x  x x xx xxx xx xx

Guitar 1
e|---------------------------------------------------------------|
B|--------------------------5-6-5--------------------------------|
G|--------------------------------7-6----------------------------|
D|--0~----------------7-8-7-----------8-7-5----------------------|
A|--0~----0-0-0-0---5-----------------------8-7-5----------------|
D|--0~----0-0-0-0---------------------------------8--------------|
          x x x x

Guitar 2
e|---------------------------------------------------------------|
B|-----------------------------8-10-8----------------------------|
G|------------------------------------10-9-----------------------|
D|--0~----------------10-12-10-------------12-10-8---------------|
A|--0~----0-0-0-0---8------------------------------12-10-8-------|
D|--0~----0-0-0-0------------------------------------------12----|

Guitar 1&2
e|---------------------------------------------------------------|
B|---------------------------------------------------------------|
G|-----7---------7------------7----------------------------------|
D|--------7h8------7h8----------7h8--------8-7-------------------|
A|-00---------00------0000-00-------8-8h10----8-5----------------| 
D|-00---0-----00--0---0000-00--0---0-0----0----------------------|
   xx   x     xx  x   xxxx xx  x   x x    x
Guitar 2
e|---------------------------------------------------------------|
B|---------------------------------------------------------------|
G|-----10-----------10--------------10---------------------------|
D|---------10h12-------10h12-----------10h12----------12-10------|
A|-00------------00---------0000-00----------12-12h13-------12-8-| 
D|-00----0-------00---0-----0000-00---0-----0--0-----0-----------|
   xx    x       xx   x     xxxx xx   x     x  x     x

(Chorus again x2)

Guitar 1
e|---------------------------------------------------------------|
B|---------------------------------------------------------------|
G|---------------------------------------------------------------|
D|-88888888-555555555-0000------------33333333-55555555----------|
A|-88888888-555555555-0000-00-000-000-33333333-55555555----------| x1.5
D|-88888888-555555555-0000-00-000-000-33333333-55555555----------|
                           xx xxx xxx

e|---------------------------------------------|
B|---------------------------------------------|
G|-14t7h9h10-x8-15t9h10h12-x8-17t10h12h14-x8---|
D|---------------------------------------------|
A|---------------------------------------------|
D|---------------------------------------------|
                    
e|---------------------------------------------|
B|---------------------------------------------|
G|--15t9h10h12-x4--t15/17\15p9-9h10p9----10----|
D|------------------------------------12-------|
A|---------------------------------------------|
D|---------------------------------------------|
                  *tap and slide with right hand

e|---------------------------------------------|
B|---------------------------------------------|
G|-14t7h9h10-x8-15t9h10h12-x8-17~~~------------|
D|---------------------------------------------|
A|---------------------------------------------|
D|---------------------------------------------|
  
Guitar 1
e|---------------------------------------------------------------|
B|---------------------------------------------------------------|
G|---------------------------------------------------------------|
D|---------------------------------------------------------------|
A|---------------------------------8-7-5-------------------------|
D|-0-0-0000-0000-0-00-00--0-0000-0-------8-7-3-5-----------------|

Guitar 2
e|---------------------------------------------------------------|
B|---------------------------------------------------------------|
G|---------------------------------------------------------------|
D|---------------------------------------------------------------|
A|---------------------------------12-10-8-----------------------|
D|-----------------------------------------12-10-7-8-------------|

Guitar 1 & 2
e|---------------------------------------------------------------|
B|---------------------------------------------------------------|
G|---------------------------------------------------------------|
D|---------------------------------------------------------------|
A|---------------------------------3b*---------------------------|
D|-0-0-0000-0000-0-00-00--0-0000-0-------------------------------|

You should be able to figure the rest of it out.  Just continue the breakdown and 
then repeat one of the riffs from above and that's it.

| /  slide up
| \  slide down
| h  hammer-on
| p  pull-off
| ~  vibrato
| +  harmonic
| x  Mute note
Добавлено: 30.05.2012
Другие материалы по этой песне:

Страница создана 12.03.2012
http://primanota.ru/adestria/with-the-wind-at-your-back-chords.htm
Привет, Гость.
Предлагаем пройти революционный курс по гитаре.
Подарок от PrimaNota.Ru, забирай!