PrimaNota.ru - самый крупный в мире бесплатный архив песенных текстов, аккордов, табулатур и нот


Adestria - More Than You Know - таба, видео

Регистрация Запомнить меня
Войти через:  Facebook Google Twitter Vk Yandex Mail.ru

Adestria - More Than You Know - таба, видео

Печатать
Просмотров: 340
Уроки эстрадного вокала в Санкт-Петербурге
Tabs for Adestria's song, More Than You Know, off their album, Chapters. There is most 
likely a few mistakes. You'll have to figure out the timing yourself, but it's pretty 
easy. Tabbed by lafawafa, hope you all enjoy!

Video I used for time references in the tab: https://www.youtube.com/watch?v=U0GLAQqMuAk

Tuning: Drop C

Basic guide:
* - Palm mute
/ - Slide up

----------------

(2:00-3:00)

Guitar parts don't start until 2:00... Don't use distortion here. Keep on playing this 
until 3:00.

D|------------------------------------------------|
A|------------------------------------------------|
F|-15-14-12------------------------------12-14-15-|
C|----------15-10/12-15-10/12---10/12-15----------|
G|------------------------------------------------|
C|------------------------------------------------|

(3:00-3:01)

D|-------------------|
A|-------------------|
F|----------12-14-15-|
C|-10/12-15----------|
G|-------------------|
C|-------------------|

(3:01-3:30)

The point at which the song transitions from soft to hard. Use distortion from this 
point onward.

D|----------------------------------------------12-13-12-|
A|-------------------------------------------15----------|
F|-15-14-10/12-------------------------14-15-------------|
C|-------------12/15-10/12-(x3)--12-15-------------------|
G|-------------------------------------------------------|
C|-------------------------------------------------------|

Play this entire part 4 times before transitioning to the breakdowns.

(3:30-4:01)

D|--------------------------------------------------------|
A|--------------------------------------------------------|
F|--------------------------------------------------------|
C|-00000000-0-0-0-00000000-000-8-00000000-0000-00-00-00-00|
G|-00000000-0-0-0-00000000-000-8-00000000-0000-00-00-00-00|
C|-00000000-0-0-0-00000000-000-8-00000000-0000-00-00-00-00|
   ******** * * * ******** *** * ******** **** ** ** ** **

Play this part 4 times before the song transitions into the piano outro. Remember to let 
the 8's ring for a second or two before playing the second set of 0's.
Добавлено: 24.05.2014
Другие материалы по этой песне:
  • Аккорды и текст

Страница создана 24.05.2014
http://primanota.ru/adestria/more-than-you-know-chords.htm
Привет, Гость.
Предлагаем пройти революционный курс по гитаре.
Подарок от PrimaNota.Ru, забирай!