PrimaNota.ru - самый крупный в мире бесплатный архив песенных текстов, аккордов, табулатур и нот


Adema - Tornado - текст песни, таба, бас-таба, видео

Регистрация Запомнить меня
Войти через:  Facebook Google Twitter Vk Yandex Mail.ru

Adema - Tornado - текст песни, таба, бас-таба, видео

Печатать
Просмотров: 307
Adema-Tornado
Tuning-DADGBE

Intro:

  Part 1 (Played X2)
E|-----------------|-----------------|-----------------|-----------------|
B|-----------------|-----------------|-----------------|-----------------|
G|-5-5-5-5-5-4-4---|-----------------|-----------------|-----------------|
D|-5-5-5-5-5-4-4-2-|-2-2-2-2-2-2-5-5-|-5-0-0-0-0-0-0-0-|-0-0-0-0-0-0-0-0-|
A|-3-3-3-3-3-2-2-2-|-2-2-2-2-2-2-5-5-|-5-0-0-0-0-0-0-0-|-0-0-0-0-0-0-0-0-|
D|---------------2-|-2-2-2-2-2-2-5-5-|-5-0-0-0-0-0-0-0-|-0-0-0-0-0-0-0-0-|

  Part 2 (plays over part 1 second time)
E|-----------------|-----------------|-----------------|-----------------|
B|-----------------|-----------------|-----------------|-----------------|
G|-----------------|-----------------|-----------------|-------7-7-7-7-7-|
D|-----------------|-----------------|-----------------|-------7-7-7-7-7-|
A|-3---2---3---2---|-3---5-3---2-----|-3---2---3---2---|-3-2---5-5-5-5-5-|
D|---5---5---5---5-|---5-------------|---5---5---5---5-|-----5-----------|

Pre-Verse:

E|-----------------|-----------------|-----------------|-------------------|
B|-----------------|-----------------|-----------------|-------------------|
G|-----4-----4---4-|-----4-----4---4-|-----4-----4---4-|-------------------|
D|-----4-----4---4-|-----4-----4---4-|-----4-----4---4-|-------------------|
A|-----2-----2---2-|-----2-----2---2-|-----2-----2---2-|-----3-------------|
D|-2-2---2-2---2---|-5-5---5-5---5---|-0-0---0-0---0---|-0-0-----5-5-5-0-0-|

Verse:

E|-----------------|-----------------|-----------------|-------------------|
B|-----------------|-----------------|-----------------|-------------------|
G|-----4-----4---4-|-----4-----4---4-|-----4-----4---4-|-------------------|
D|-----4-----4---4-|-----4-----4---4-|-----4-----4---4-|-------------------|
A|-----2-----2---2-|-----2-----2---2-|-----2-----2---2-|-----3-------------|
D|-2-2---2-2---2---|-5-5---5-5---5---|-0-0---0-0---0---|-0-0-----5-5-5-0-0-|

E|-----------------|-----------------|-----------------|-----------------|
B|-----------------|-----------------|-----------------|-----------------|
G|-----4-----4---4-|-----4-----4---4-|-----4-----4---4-|-----------------|
D|-----4-----4---4-|-----4-----4---4-|-----4-----4---4-|-----------------|
A|-----2-----2---2-|-----5-----5---5-|-----2-----2---2-|-0-0-0-0---------|
D|-2-2---2-2---2---|-5-5---5-5---5---|-0-0---0-0---0---|---------0-0-0-0-|

E|-----------------|-----------------|-----------------|-------------------|
B|-----------------|-----------------|-----------------|-------------------|
G|-----4-----4---4-|-----4-----4---4-|-----4-----4---4-|-------------------|
D|-----4-----4---4-|-----4-----4---4-|-----4-----4---4-|-------------------|
A|-----2-----2---2-|-----2-----2---2-|-----2-----2---2-|-----3-------------|
D|-2-2---2-2---2---|-5-5---5-5---5---|-0-0---0-0---0---|-0-0-----5-5-5-0-0-|

E|-----------------|-----------------|-----------------|------------------|
B|-----------------|-----------------|-----------------|------------------|
G|-----4-----4---4-|-----4-----4---4-|-----4-----4---4-|-2-2-2-2-7-7-7-7--|
D|-----4-----4---4-|-----4-----4---4-|-----4-----4---4-|-2-2-2-2-7-7-7-7--|
A|-----2-----2---2-|-----5-----5---5-|-----2-----2---2-|-0-0-0-0-5-5-5-5--|
D|-2-2---2-2---2---|-5-5---5-5---5---|-0-0---0-0---0---|------------------|

Do the chorus, then...

Fill after chorus:

E|-----------------|---------------------|
B|-----12-----12---|-------12------12----|
G|-9-9----9-9----9-|---------------------|
D|-----------------|-11-11---11-11----11-|
A|-----------------|---------------------|
D|-----------------|---------------------|

Do the verse again,
Then the chorus...
straight after the chorus, do this:

E|---------------------------------------------------|
B|---------------------------------------------------|
G|-2-2-4-4-5-5-7-7-9-9-11-11-12-12-14-14-16-\-\------|
D|-x-x-x-x-x-x-x-x-x-x-x--x--x--x--x--x--x--\-\-\----|
A|-0-0-2-2-3-3-5-5-7-7-9--9--10-10-12-12-14--\-\-\-\-|
D|---------------------------------------------------|


First part of bridge:

E|--------------------------|---------------------------|
B|--------------------------|---------------------------|
G|--------------------------|---------------------------|
D|-5------------------------|-5-------------------------|
A|-5------2-------2---------|-5-----2-------2-----4-----|
D|-5-4h5----5-4h5---5-5-4-0-|-5-4h5---5-4h5---5-5---4-0-|

Bridge:

  X2
E|-----------------|-----------------|-----------------|-----------------|
B|-----------------|-----------------|-----------------|-----------------|
G|-----------------|-----------------|-----------------|-----------------|
D|-----------------|-----------------|-----------------|-----------------|
A|-----2---3---0---|-2-------0-------|-----2---3---0---|-2-------0-------|
D|-----------------|-----5-------4---|-----------------|-----5-------4---|

After bridge do this:

E|-------------------|--------------------------------------------|
B|-------------------|--------------------------------------------|
G|-2-2--2-2-2--2-2-2-|-2-2-2-2/4--4-4-4-4-4-4-4--4/7-7-7--7/9-9-9-|
D|-2-2--2-2-2--2-2-2-|-2-2-2-2/4--4-4-4-4-4-4-4--x/x-x-x--x/x-x-x-|
A|-0-0--0-0-0--0-0-0-|-0-0-0-0/2--2-2-2-2-2-2-2--4/5-5-5--5/7-7-7-|
D|-------------------|--------------------------------------------|

Bass part...
Do the chorus again, then...

Outro:
  
  Part 1 (Played X4)
E|-----------------|-----------------|-----------------|-----------------|
B|-----------------|-----------------|-----------------|-----------------|
G|-----------------|-----------------|-----------------|-----------------|
D|-----------0-0-0-|-2-2-2-2-2-5-5-5-|-4-4-4-4-4-4-4-4-|-4-4-4-4-4-4-4-4-|
A|-3-3-3-3-3-------|-----------------|-----------------|-----------------|
D|-----------------|-----------------|-----------------|-----------------|

  Part 2 (played after part 1)
E|-----------------|-----------------|-----------------|-----------------|
B|-----------------|-----------------|-----------------|-----------------|
G|-5---------4-----|-----------------|-----------------|-----------------|
D|-5---------4---2-|-------5-5-----0-|-0---------------|-----------------|
A|-3---------2---2-|-------5-5-----0-|-0--Let this chord ring until end--|
D|---------------2-|-------5-5-----0-|-0---------------|-----------------|
Добавлено: 06.06.2012
Другие материалы по этой песне:
  • Аккорды и текст

Страница создана 20.05.2012
http://primanota.ru/adema/tornado-chords.htm
Привет, Гость.
Предлагаем пройти революционный курс по гитаре.
Подарок от PrimaNota.Ru, забирай!