PrimaNota.ru - самый крупный в мире бесплатный архив песенных текстов, аккордов, табулатур и нот


Adema - Cold And Jaded - текст песни, таба, видео

Регистрация Запомнить меня
Войти через:  Facebook Google Twitter Vk Yandex Mail.ru

Adema - Cold And Jaded - текст песни, таба, видео

Печатать
Просмотров: 143
verse x8
e(-------------)
b(-------------)
g(-------------)
d(--77777-7777-)
a(--77777-7777-)
D(--77777-7777-)
  pm..... ....

verse(lead) x10  the lead is kinda difficult to time
e(------------------------)
b(------------------------)
g(------------------------)
d(------------------------)
a(--000030-00-50-00-70-00-)
D(------------------------)

chorus  x2
e(----------------------------------------------)
b(----------------------------------------------)
g(---------------------555555551010101010101010-)
d(--12/7777777777777777555555551010101010101010-)
a(--12/7777777777777777333333338-8-8-8-8-8-8-8--)
D(--12/7777777777777777-------------------------)

bridge  x2
e(--------------------------------------)
b(--------------------------------------)
g(--7---22-33-33-3-3-7---7-22-33-33-5-5-)
d(--7-0-22-33-33-3-3-7-0-7-22-33-33-5-5-)
a(--5-0-00-11-11-1-1-5-0-5-00-11-11-3-3-)
D(----0----------------0----------------)

last chorus  x4
e(--------------------------------------------------------------)
b(--------------------------------------------------------------)
g(---------------------5555555510101010101010101010101010101010-)
d(--12/77777777777777775555555510101010101010101010101010101010-)
a(--12/7777777777777777333333338-8-8-8-8-8-8-8-8-8-8-8-8-8-8-8--)
D(--12/7777777777777777-----------------------------------------)

outro x12
e(------------------------)
b(------------------------)
g(--222252-22-72-22-92-22-)
d(--222252-22-72-22-92-22-)
a(--000030-00-50-00-70-00-)
D(------------------------)
Добавлено: 04.07.2012
Другие материалы по этой песне:
  • Аккорды и текст

Страница создана 20.04.2012
http://primanota.ru/adema/cold-and-jaded-chords.htm
Привет, Гость.
Предлагаем пройти революционный курс по гитаре.
Подарок от PrimaNota.Ru, забирай!