PrimaNota.ru - самый крупный в мире бесплатный архив песенных текстов, аккордов, табулатур и нот


Adema - Brand New Thing - текст песни, таба, видео

Регистрация Запомнить меня
Войти через:  Facebook Google Twitter Vk Yandex Mail.ru

Adema - Brand New Thing - текст песни, таба, видео

Печатать
Просмотров: 234
verse x6
e(----------------------)
b(----------------------)
g(--9999-5555------7777-)
d(--9999-5555-5555-7777-)
a(--7777-3333-5555-5555-)
D(------------5555------)

pre-chorus x2
e(------7-----7---10---7---)
b(-------------------------)
g(----9-----9---9----9---9-)
d(-------------------------)
a(--7-----7----------------)
D(-------------------------)

chorus x4
e(----------------------------)
b(----------------------------)
g(--99999-999999-55555-555555-)
d(--99999-999999-55555-555555-)
a(--77777-777777-33333-333333-)
D(----------------------------)

post chorus
e(--14----14----15----15-15-)
b(-----15----15----15-------)
g(--------------------------)
d(--------------------------)
a(--------------------------)
D(--------------------------)

second verse x4
e(----------------------)
b(----------------------)
g(--9999-5555------7777-)
d(--9999-5555-5555-7777-)
a(--7777-3333-5555-5555-)
D(------------5555------)

pre-chorus x2
e(------7-----7---10---7---)
b(-------------------------)
g(----9-----9---9----9---9-)
d(-------------------------)
a(--7-----7----------------)
D(-------------------------)

chorus x4
e(----------------------------)
b(----------------------------)
g(--99999-999999-55555-555555-)
d(--99999-999999-55555-555555-)
a(--77777-777777-33333-333333-)
D(----------------------------)

bridge
e(------------------------------------)
b(------------------------------------)
g(------4444----5555----4444----25544-)
d(------------------------------------)
a(--2222----2222----2222----2222------)
D(------------------------------------)

bridge continued
e(-----------------------------------)
b(-----------------------------------)
g(-----------------------------------)
d(------5555----5555----5555----5577-)
a(--3333----3333----3333----3333-----)
D(-----------------------------------)

bridge continued
e(------------------------------------)
b(------------------------------------)
g(--444444444444555544444444444425544-)
d(--4444----4444----4444----4444------)
a(--2222----2222----2222----2222------)
D(------------------------------------)

bridge continued
e(-------------------------------------)
b(-------------------------------------)
g(--5555----5555----5555----5555-------)
d(--55555555555555555555555555555577-5-)
a(--3333----3333----3333----3333-----5-)
D(-----------------------------------5-)

chorus x8
e(----------------------------)
b(----------------------------)
g(--99999-999999-55555-555555-)
d(--99999-999999-55555-555555-)
a(--77777-777777-33333-333333-)
D(----------------------------)

last chords
e(--------------)
b(--------------)
g(--55555-77777-)
d(--55555-77777-)
a(--33333-55555-)
D(--------------)



Добавлено: 19.05.2012
Другие материалы по этой песне:
  • Аккорды и текст

Страница создана 19.05.2012
http://primanota.ru/adema/brand-new-thing-chords.htm
Привет, Гость.
Предлагаем пройти революционный курс по гитаре.
Подарок от PrimaNota.Ru, забирай!