PrimaNota.ru - самый крупный в мире бесплатный архив песенных текстов, аккордов, табулатур и нот


Adammo - En Tus Suenos - бас-таба, видео

Регистрация Запомнить меня
Войти через:  Facebook Google Twitter Vk Yandex Mail.ru

Adammo - En Tus Suenos - бас-таба, видео

Печатать
Просмотров: 128
Estas partituras fueron publicadas por B.Y. L.M.E.R* en otra página.

Aqui les dejo el Tab para bajo de En tus sueños, si lo modifican
mucho mejor :)... snaker_1@hotmail.com

INTRO:(0:00)

G|-----------------------------------|
D|-----------------------------474---|
A|--5-5-55------------------5-5---7--|
E|----------7-7-77--3-3-33-----------|
                           En esta parte hay
                           que jugar
G|-------------------------|-----------|
D|-------------------------|-----------|
A|5-5-55-----------------5-|-54--------|
E|-------7-7-77--3-3-33----|---530-----|
  Luego vamos rapidamente   Al final del Intro
  otra ves al comienzo      hay un sonido así


VERSO:(0:14)

"Se que ganas no te faltan..."

G|------------------------------------------------------------|
D|-----------------------------474----------------------------|
A|--5-55-5------------------5-5---75-55-5------------------5--|
E|----------7-77-7--3-33-3-----------------7-77-7--3-33-3-----|
Son las mismas notas del INTRO pero el ritmo es otro

PRE-CORO:(0:27)

"Cuanto te despiertes..."

G|-----------------------------------------------|
D|-----------------------------------------------|
A|----------55-0-55-0-55-------------------------|
E|-3333333---------------000000-222222-3333333-5-|
Cada nota se repite varias veces

CORO:(0:40)

"Ouhouhouh..."

G|------------------------------|      |--------------|
D|------------------------------|      |--------------|
A|----------5555555-------------|  X4  |--------------|
E|-33333333---------5555555555--|      |-5-5-5-5-55-3-|
                                       "mi primer llanto"
VERSOII:(1:14)

G|----------------------------------|
D|----------------------------------| x2
A|--5-5-----------5--5-5---------5--|
E|------7-75-3-3---------7-75-3-3---|
     Este 75 tiene que ser rapidito escuchen
     bien la cancion y se daran cuenta

PRE-CORO II:(1:28)

"Cuanto te despiertes..."

G|--------------------------------------------------|
D|--------------------------------------------------|
A|-------------55-0-55-0-55-------------------------|
E|-3333333333---------------000000-222222-3333333-5-|
  Lo mismo XD

CORO:(1:41)

"Ouhouhouh...."

G|---------------------------|       |---------------|
D|---------------------------|       |---------------|
A|----------5555555----------|  X4   |---------------|
E|-33333333---------55555555-|       |-5-5-5-5-55-3--|
                                     "mi primer llanto"
OTRO:(2:08)

"Te diiiiiiii, a tiiiiii.. Ya no .. uuuuuu"

G|--------------------------------------------|
D|--------------------------------------------|
A|------------------22222222------------------|
E|-3333333-2222222------------5555555555------|

G|--------------------------|   G|---------------------|
D|--------------------------|   D|---------------------|
A|--------------------------|   A|---------------------|
E|-333-555-777-1010101097---|   E|-222-333-555-777775--|
              aca es diez
G|----------------------------------------|
D|-------------------9-77-77-77-77-7-7-7^-|
A|-222-555-777-999-9----------------------|
E|----------------------------------------|

CORO:(2:38)

"Ouhouhouh...."

G|----------------------------|      |---------------|
D|----------------------------|      |---------------|
A|----------5555555-----------|  X4  |---------------|
E|-33333333---------55555555--|      |-5-5-5-5-55-3--|
                                     "mi primer llanto"
FINAL:(3:06)

"diiii....pudiste transformar..."

G|----------------------------|      |---------------------|
D|----------------------------|      |---------------------|
A|----------5555555-----------|  x2  |---------------353---|
E|-33333333---------555555555-|      |-5-5-5-5-55-35----52-|
                                    CREO QUE ASI ES EL FINAL
Добавлено: 17.07.2012
Другие материалы по этой песне:

Страница создана 17.07.2012
http://primanota.ru/adammo/en-tus-suenos-chords.htm
Привет, Гость.
Предлагаем пройти революционный курс по гитаре.
Подарок от PrimaNota.Ru, забирай!