PrimaNota.ru - самый крупный в мире бесплатный архив песенных текстов, аккордов, табулатур и нот


Adamlar - Öyle Normal - таба, видео

Регистрация Запомнить меня
Войти через:  Facebook Google Twitter Vk Yandex Mail.ru

Adamlar - Öyle Normal - таба, видео

Печатать
Просмотров: 68
-------------------------------------------------------------------------------
                             Öyle Normal - Adamlar
-------------------------------------------------------------------------------
Tabbed by:Batuhan Kadıoğlu
E-mail:

Tuning:E

e|---------------------------------------------------------------------------|
B|--/5--4-5-4--5/7--5-4--------4------/5--4-5-4--5/7--5-4--------4-----------|   
G|-------------------------6----------------------------------6--------------|
D|---------------------------------------------------------------------------|
A|---------------------------------------------------------------------------|
E|---------------------------------------------------------------------------|


e|---------------------------------------------------------------------------|
B|--/5--4-5-4--5/7--5-4------------------------------------------------------|
G|-------------------------6--4----/4-3--4-3-4/6/4-3--1---3-1-0--------------|
D|---------------------------------------------------------------------------|
A|---------------------------------------------------------------------------|
E|---------------------------------------------------------------------------|




************************************

| /   slide up
| \   slide down
| h   hammer-on
| p   pull-off
| ~   vibrato
| +   harmonic
| x   Mute note
| b   Bend
| pb  Pre-bend
| br  Bend release
| pbr Pre-bend release
| brb Bend release bend

************************************
Добавлено: 29.05.2016
Другие материалы по этой песне:
  • Аккорды и текст

Страница создана 29.05.2016
http://primanota.ru/adamlar/oyle-normal-chords.htm
Привет, Гость.
Предлагаем пройти революционный курс по гитаре.
Подарок от PrimaNota.Ru, забирай!