PrimaNota.ru - самый крупный в мире бесплатный архив песенных текстов, аккордов, табулатур и нот


Adamlar - Kadın - таба, видео

Регистрация Запомнить меня
Войти через:  Facebook Google Twitter Vk Yandex Mail.ru

Adamlar - Kadın - таба, видео

Печатать
Просмотров: 68
-------------------------------------------------------------------------------
                            Kadın - Adamlar
-------------------------------------------------------------------------------
Tabbed by:Batuhan Kadıoğlu
E-mail:

Tuning:E

Guitar 1
e----/5--5--6-6/8-6-5-----------------------------------------------------------|
B------------------------/6--6--8--8/10--8--6--5-----------6--------------------|
G----------------------------------------------------7---------6----------------|


Guitar 2
G-------------------------------------------------------------------------------|
A-------5-5-5----------------------4-5-7----------------------------------------|
E-----------------3-3-3---5-5-5-------------------------------------------------|

************************************

| /   slide up
| \   slide down
| h   hammer-on
| p   pull-off
| ~   vibrato
| +   harmonic
| x   Mute note
| b   Bend
| pb  Pre-bend
| br  Bend release
| pbr Pre-bend release
| brb Bend release bend

************************************
Добавлено: 29.05.2016
Вам также может быть интересно:
Другие материалы по этой песне:
  • Аккорды и текст

Страница создана 29.05.2016
http://primanota.ru/adamlar/kadn-chords.htm
Привет, Гость.
Предлагаем пройти революционный курс по гитаре.
Подарок от PrimaNota.Ru, забирай!