PrimaNota.ru - самый крупный в мире бесплатный архив песенных текстов, аккордов, табулатур и нот


Adamlar - Bizim Zamanımız - таба, видео

Регистрация Запомнить меня
Войти через:  Facebook Google Twitter Vk Yandex Mail.ru

Adamlar - Bizim Zamanımız - таба, видео

Печатать
Просмотров: 59
-------------------------------------------------------------------------------
                             Bizim Zamanımız - Adamlar
-------------------------------------------------------------------------------
Tabbed by:Batuhan Kadıoğlu
E-mail:

Tuning:E

Intro
e|---------------------------------------------------------------------------|
B|--12-12--10-10--8-8--7-7--5-5--3-3--2-2-0----------------------------------|   --->>> A-G-F#
G|---------------------------------------------------------------------------|
D|---------------------------------------------------------------------------|
A|---------------------------------------------------------------------------|
E----------------------------------------------------------------------------|


e|--10-9-7-6-7---------------------------------------------------------------|
B|-----------------7--7-8-10-8-7-----7---------------------------------------|       
G|---------------------------------9---9--7-6---6-7-9--9-7-6-----------------|    X4    
D|---------------------------------------------------------------------------|
A|---------------------------------------------------------------------------|
E|---------------------------------------------------------------------------|


************************************

| /   slide up
| \   slide down
| h   hammer-on
| p   pull-off
| ~   vibrato
| +   harmonic
| x   Mute note
| b   Bend
| pb  Pre-bend
| br  Bend release
| pbr Pre-bend release
| brb Bend release bend

************************************
Добавлено: 29.05.2016
Другие материалы по этой песне:
  • Аккорды и текст

Страница создана 29.05.2016
http://primanota.ru/adamlar/bizim-zamanmz-chords.htm
Привет, Гость.
Предлагаем пройти революционный курс по гитаре.
Подарок от PrimaNota.Ru, забирай!