PrimaNota.ru - самый крупный в мире бесплатный архив песенных текстов, аккордов, табулатур и нот


Adam Sandler - A Song About Elmo - таба, видео

Регистрация Запомнить меня
Войти через:  Facebook Google Twitter Vk Yandex Mail.ru

Adam Sandler - A Song About Elmo - таба, видео

Печатать
Просмотров: 157
Уроки эстрадного вокала в Санкт-Петербурге
This is a song about
e|----------------------|
B|----------------------|
G|---4---4---4--4--2--4-|
D|-2---2----------------|
A|----------2--2--2--2--|
E|----------------------|

When he rides
e|-----------------------------|
B|-----------2---2-------------|
G|---4---4---------------------|
D|-2---2---------------------1-|
A|----------0--0----2~---2-4---|
E|-----------------------------|

At night he takes
e|----------------------|
B|----------------------|
G|---4---4---4--4--4--4-|
D|-2---2----------------|
A|----------2--2--2--2--|
E|----------------------|

It's not a song about a penguin
e|----------------------------------------------------------|
B|----------------------------------------2---2-------------|
G|---4---4---4--4--4--4----4--4--4---4----------------------|
D|-2---2-----------------2---2--2--2----------------------1-|
A|----------2--2--2--2------------------0---0----2~---2-4---|
E|----------------------------------------------------------|

It's not a song about a banana
e|----------------------|
B|----------------------|
G|---4---4---4--4--4--4-|
D|-2---2----------------|
A|----------2--2--2--2--|
E|----------------------|

It's not about a parrot
e|--------------------|
B|--------------------|
G|---4---4---4--4--4~-|
D|-2---2-----------4~-|
A|----------2--2---2~-|
E|--------------------|

It's not about a dragon
e|-----------------------------------|
B|-----------------------------------|
G|---4---4---4--4--4--4---4--4--4--4-|
D|-2---2-----------------2--2--2--2--|
A|----------2--2--2--2---------------|
E|-----------------------------------|

This is a song about Elmo
e|------------------------------------------------|
B|------------------------------------------------|
G|---4---4---4--4--4--4---4--4--4--4----4----4----|
D|-2---2-----------------2--2--2--2--------2------|
A|----------2--2--2--2----------------2--------2~-|
E|------------------------------------------------|

Bridge
e|---------------------------------------------------|
B|-------------------------------------4444----------|
G|-666---444---222---111---666---444---4444-----4444-|
D|-777---666---444---222---777---666---xxxx-----4444-|
A|-777---777---444---222---777---777---2222-----2222-|
E|-555---444---222---000---555---444-----------------|

Ending
   x2
e|----------------------|------------|
B|-0000------------0000-|-0000--2222-|
G|-4444--44444444--4444-|-4444--2222-|
D|-2222--44444444--2222-|-2222--2222-|
A|-------22222222-------|-------0000-|
E|----------------------|------------|

Time to say
e|----------------|
B|----------------|
G|-4---------1~---|
D|-4---------2~---|
A|-2-(x20)---2~---|
E|-----------0~---|
Добавлено: 15.11.2013
Другие материалы по этой песне:
  • Аккорды и текст

Страница создана 15.11.2013
http://primanota.ru/adam-sandler/a-song-about-elmo-chords.htm
Привет, Гость.
Предлагаем пройти революционный курс по гитаре.
Подарок от PrimaNota.Ru, забирай!