PrimaNota.ru - самый крупный в мире бесплатный архив песенных текстов, аккордов, табулатур и нот


Adam Levine - Lost Stars - аккорды и текст, бас-таба, видео

Регистрация Запомнить меня
Войти через:  Facebook Google Twitter Vk Yandex Mail.ru

Adam Levine - Lost Stars - аккорды и текст, бас-таба, видео

Печатать
Просмотров: 2688
Авторы: Nick Lashley, Gregg Alexander, Danielle Brisebois, Nick Southwood

Lost Stars
Adam Levine
-----------------------------------------------------------------------------
              Adam Levine - Lost Stars ( Begin Again Soundtrack )
-----------------------------------------------------------------------------

Shoutout to kerenit for the corrections.
 
Tuning: Standard

        F       G        D             Em          Dm       C

e|------0-------3--------2--------0--------1-------0--------------------------|
B|------1-------3--------3-------0---------3-------1--------------------------|
G|------2-------4--------2-------0---------2-------0--------------------------|
D|------3-------5--------0-------2---------0-------2--------------------------|
A|------3-------5--------x-------2---------x--------3-------------------------|
E|------1-------3--------x-------0---------x--------0-------------------------|



   Intro : F

   Verse 1 :

F
Please dont see
F
Just a boy caught up in dreams and fantasies
F
Please see me
F
Reaching out for someone i can see
F         Em                              F
Take my hand, lets see where we wake up tomorrow
            Em                                   F
Best laid plans, sometime its just a one night stand
         Em                                  F
I'll be damned, cupid's demanding back his arrow
G                           G
So lets gets drunk, on our tears

   Chorus : 
F                 C
God, tell us the reason
                        F
Youth is wasted on the young
             C
Its hunting season
                         F
And the lambs are on the run
               C
Searching for meaning
           D            D
But are we all lost stars
Dm                       G       
Trying to light up the dark

   Verse 2 (Same as verse 1) :

Who are we
Just a speck of dust within the galaxy
Woe is me 
If we're not careful, tunrs into reality
Dont you dare, let our best memories bring you sorrow
Yesterday, i saw a lion kiss a deer
Turn the page, maybe we'll find a brand new ending
When we're dancing on our tears

  Chorus

  Bridge :
F                               C
I thought i saw you out there crying
F                             C
I thought i heard you call my name
F                                C
I thought i saw you out there crying
G               F
Just the same , yeahhhhhhhhh

Chorus.
Добавлено: 03.10.2014
Другие материалы по этой песне:

Страница создана 24.07.2014
http://primanota.ru/adam-levine/lost-stars-chords.htm
Привет, Гость.
Предлагаем пройти революционный курс по гитаре.
Подарок от PrimaNota.Ru, забирай!