PrimaNota.ru - самый крупный в мире бесплатный архив песенных текстов, аккордов, табулатур и нот


Action Bronson - Baby Blue - таба, видео

Регистрация Запомнить меня
Войти через:  Facebook Google Twitter Vk Yandex Mail.ru

Action Bronson - Baby Blue - таба, видео

Печатать
Просмотров: 109
Авторы: Zane Lowe, Chancelor Bennet, Mark Ronson, Ariyan Arslani

Song: Baby Blue    (https://www.youtube.com/watch?v=bVP_w1rQweE)
Album: MR. WONDERFUL
Artist: Action Bronson
tabbed by Daniel E.


I dont know why I tried to tab an Action Bronson song but here it is (if you see any mistakes and this is likely
to happen, feel free to correct them).


[the whole song is on piano, which is played by Mark Ronson who also produced the song. this is just an adaption
not like I rearranged it or something like that]


~ = vibrato 




intro (there's a second piano who does a little thing I can't tab, help me if you can!)

e|-----------------------------------------------------------------------------------|
B|-----------------------------------------------------------------------------------|
G|---13---------13--11--9---------9--8--6---------6--4--2--22--2222------------------|
D|---13--(x13)--13--11--9--(x13)--9--8--6--(x13)--6--4--2--22--2222------------------|
A|---11---------11--9---7---------7--6--4---------4--2--0--00--0000------------------|
E|-----------------------------------------------------------------------------------|

                                                           ..

"baby girl I'm blue"

e|---------------------------------------|
B|---------------------------------------|
G|------9--8--9--11----------------------|
D|------9--8--9--11----------------------|
A|------7--6--7--9-----------------------|
E|---------------------------------------|





verse 

e|-----------------------------------------------------------------------------------|             \
B|-----------------------------------------------------------------------------------|              \ 
G|---13---------13--11--9---------9--8--6---------6--4--2--22--2222------------------|               \
D|---13--(x13)--13--11--9--(x13)--9--8--6--(x13)--6--4--2--22--2222------------------|                \
A|---11---------11--9---7---------7--6--4---------4--2--0--00--0000------------------|                 \
E|-----------------------------------------------------------------------------------|                  \
                                                           ..                                            \
                                                                                                          \ 
                                                                                                           \  x2
                                                                                                           / 
little transition                                                                                         /
                                                                                                         /
e|---------------------------------------|                                                              / 
B|---------------------------------------|                                                             /
G|------9--8--9--11----------------------|                                                            / 
D|------9--8--9--11----------------------|                                                           /
A|------7--6--7--9-----------------------|                                                          /
E|---------------------------------------|                                                         /





chorus


e|-----------------------------------------------------------------------------------|
B|-----------------------------------------------------------------------------------|
G|---13---------13--11--9---------9--8--6---------6--4--2--22--2222------------------|
D|---13--(x13)--13--11--9--(x13)--9--8--6--(x13)--6--4--2--22--2222------------------|
A|---11---------11--9---7---------7--6--4---------4--2--0--00--0000------------------|
E|-----------------------------------------------------------------------------------|
                                                           ..


"baby girl I'm blue"

e|---------------------------------------|
B|---------------------------------------|
G|------9--8--9--11----------------------|
D|------9--8--9--11----------------------|
A|------7--6--7--9-----------------------|
E|---------------------------------------|






verse 

e|-----------------------------------------------------------------------------------|             \
B|-----------------------------------------------------------------------------------|              \ 
G|---13---------13--11--9---------9--8--6---------6--4--2--22--2222------------------|               \
D|---13--(x13)--13--11--9--(x13)--9--8--6--(x13)--6--4--2--22--2222------------------|                \
A|---11---------11--9---7---------7--6--4---------4--2--0--00--0000------------------|                 \
E|-----------------------------------------------------------------------------------|                  \
                                                           ..                                            \
                                                                                                          \ 
                                                                                                           \  x2
                                                                                                           / 
little transition                                                                                         /
                                                                                                         /
e|---------------------------------------|                                                              /  
B|---------------------------------------|                                                             /
G|------9--8--9--11----------------------|                                                            / 
D|------9--8--9--11----------------------|                                                           /
A|------7--6--7--9-----------------------|                                                          /
E|---------------------------------------|                                                         /








chorus


e|-----------------------------------------------------------------------------------|
B|-----------------------------------------------------------------------------------|
G|---13---------13--11--9---------9--8--6---------6--4--2--22--2222------------------|
D|---13--(x13)--13--11--9--(x13)--9--8--6--(x13)--6--4--2--22--2222------------------|
A|---11---------11--9---7---------7--6--4---------4--2--0--00--0000------------------|
E|-----------------------------------------------------------------------------------|
                                                           ..


"baby girl I'm blue"

e|---------------------------------------|
B|---------------------------------------|
G|------9--8--9--11----------------------|
D|------9--8--9--11----------------------|
A|------7--6--7--9-----------------------|
E|---------------------------------------|






bridge (chance the rapper part)   -> do this section twice


e|------------------------------------------------------------------------------------------------------------|
B|-------------12---------------------------------12------------------------------12--------------------------|
G|---9/13~---13--13-13--11~--------9---9/13~----13--13-13--11~-----9---9/13~----13--13-13--11~-------9---9/13~|
D|------------------------------11--11--------------------------11--11----------------------------11--11------|
A|------------------------------------------------------------------------------------------------------------|
E|------------------------------------------------------------------------------------------------------------|


little transition

e|-----------------------|
B|-----------------------|
G|------9--8--9--11------|
D|-----------------------|
A|-----------------------|
E|-----------------------|





back to the chorus

e|-----------------------------------------------------------------------------------|
B|-----------------------------------------------------------------------------------|
G|---13---------13--11--9---------9--8--6---------6--4--2--22--2222------------------|
D|---13--(x13)--13--11--9--(x13)--9--8--6--(x13)--6--4--2--22--2222------------------|
A|---11---------11--9---7---------7--6--4---------4--2--0--00--0000------------------|
E|-----------------------------------------------------------------------------------|
                                                           ..


"baby girl I'm blue"

e|---------------------------------------|
B|---------------------------------------|
G|------9--8--9--11----------------------|
D|------9--8--9--11----------------------|
A|------7--6--7--9-----------------------|
E|---------------------------------------|






outro ("lalalalaaa"): you can do this...   


e|----------------------------------------------------------------------------------------------------------|
B|----------------------------------------------------------------------------------------------------------|
G|----------------------------------------------------------------------------------------------------------|
D|-------------9------------------------------9----------------------------9--------------------------------|
A|---7/11~---11--11-11--9~-----7---7/11~----11--11-11--9~----7---7/11~---11--11-11--9~-----7----------------|
E|---------------------------9---9-------------------------9---9-------------------------9---9-9-7~~--------|



e|-----------------------|
B|-----------------------|
G|-----------------------|
D|-----------------------|
A|----7--6--7--9---------|
E|-----------------------|



...or do this


e|------------------------------------------------------------------------------------------------------------|
B|-------------12---------------------------------12------------------------------12--------------------------|
G|---9/13~---13--13-13--11~--------9---9/13~----13--13-13--11~-----9---9/13~----13--13-13--11~-------9---9/13~|
D|------------------------------11--11--------------------------11--11----------------------------11--11------|
A|------------------------------------------------------------------------------------------------------------|
E|------------------------------------------------------------------------------------------------------------|



e|-----------------------|
B|-----------------------|
G|------9--8--9--11------|
D|-----------------------|
A|-----------------------|
E|-----------------------|






outro 2 (donnie trumpet part)


e|--------------------------------------------------------------------------------------------------------|
B|--------------------------------------------------------------------------------------------------------|
G|---7-7-----7-7------7--9--11--7--9--11---7-7------7--9--11---[x2]---------------------------------------|
D|-------9-9-----9-9---------------------------9-9--------------------------------------------------------|
A|--------------------------------------------------------------------------------------------------------|
E|--------------------------------------------------------------------------------------------------------|


/\ on the third and last time you do this:


e|-------------------------------------------------------------------------------|
B|---------------------------------------------------------------12--------------|
G|------7-7-----7-7------7--9--11--7--9--11---7-7------7--9--11-----11~~---------|
D|----------9-9-----9-9---------------------------9-9----------------------------|
A|-------------------------------------------------------------------------------|
E|-------------------------------------------------------------------------------|






ending ("baby girl I'm blue")

e|-----------------------------------|
B|-----------------------------------|
G|------9--8--9--11------------------|
D|------9--8--9--11------------------|
A|------7--6--7--9-------------------|
E|-----------------------------------|


                                        
                                            
                                            
                                        
                                                                
                        
                        
                        
                                                        
    /* Ultimate-Guitar - Tab Pages */
    (function() {
        var opts = {
            artist: "Action Bronson",
            song: "Baby Blue",
            genre: "",
            adunit_id: 39382312,
            div_id: "cf_async_" + Math.floor((Math.random() * 999999999)),
            hostname: "srv.tonefuse.com"
        };
        document.write('');var c=function(){cf.showAsyncAd(opts)};if(window.cf)c();else{cf_async=!0;var r=document.createElement("script"),s=document.getElementsByTagName("script")[0];r.async=!0;r.src="//"+opts.hostname+"/showads/showad.js";r.readyState?r.onreadystatechange=function(){if("loaded"==r.readyState||"complete"==r.readyState)r.onreadystatechange=null,c()}:r.onload=c;s.parentNode.insertBefore(r,s)};
    })();
    
    
                        
                                                    
                                                                    
                                    
                                     var amznTargs='';
                                     var key = 'amznslots';
                                     if ("amznads" in window) var values = amznads.getTokens('3x2'); //comma separated tokens
                                     if (values.length > 0) amznTargs='&'+key+'='+values;
                                    document.write('');
                                    
                                    
                                                            
                                                

                    

                
                
                
                    
                        comments
                    
                                        
                        print report bad tab
                    
                                    
                
                                    
                
                    
                             
    
        4 comments total. Showing first comments. 
            
    
                                
                
                
                    
                        
                            
                                
                                    
                                    
                                
                                                                    +1
                                                            
                            reply
                            
                            
                        
                        stycky wrote on May 7 2015, 11:43 pm  
                    
                    
                        thank you,this is awesome
                    
                
            
                                
                
                
                    
                        
                            
                                
                                    
                                    
                                
                                                                    +1
                                                            
                            reply
                            
                            
                        
                        kieran.schenkel wrote on June 14 2015, 05:34 pm, edited at 05:38 pm  
                    
                    
                        The second piano part. Also works with bass, and probably should be on bass actually. 
RIP formatting, correction in next comment
                    
                
            
                                
                
                
                    
                        
                            
                                
                                    
                                    
                                
                                                                    +1
                                                            
                            reply
                            
                            
                        
                        kieran.schenkel wrote on June 14 2015, 05:37 pm  
                    
                    
                        Well the formatting got really screwed there, 

The second piano part. Also works with bass, and probably should be on bass actually. 


e|------------------------------------|                  
B|------------------------------------|                  
G|-11-------13-14------------14---13--|    x3 and then   
D|----------------14-7----------------|                  
A|-9--------11-12----0-------12---11--|                  
E|----------------12------------------|       

e|------------------------------------|
B|------------------------------------|
G|-----------------11---10---11---13--|    x1. 
D|-14-----14--------------------------|    
A|-----------------9----8----9----11--|    
E|-12-----12--------------------------|               
Добавлено: 30.12.2015
Другие материалы по этой песне:
  • Аккорды и текст

Страница создана 30.12.2015
http://primanota.ru/action-bronson/baby-blue-chords.htm
Привет, Гость.
Предлагаем пройти революционный курс по гитаре.
Подарок от PrimaNota.Ru, забирай!