PrimaNota.ru - самый крупный в мире бесплатный архив песенных текстов, аккордов, табулатур и нот


Acrassicauda - Massacre - таба, видео

Регистрация Запомнить меня
Войти через:  Facebook Google Twitter Vk Yandex Mail.ru

Acrassicauda - Massacre - таба, видео

Печатать
Просмотров: 137
Tabbed by kwatne96
kwatne@yahoo.com - E-mail for questions or comments.

Acrassicauda - Massacre
Standard Tuning
Rhythym only

Key:
^ - Upstroke
pm & * - Palm Mute
/ - Slide Up
\ - Slide Down




Intro
                              
e|------------------------------------------------------|
b|------------------------------------------------------|
g|------------------------------------------------------|
D|------------------------------------------------------|   x2
A|-2--------22-----5--6--3--2--------22-----5--6--3--2--|
E|-0--------00-----3--4--1--0--------00-----3--4--1--0--|
            pm                       pm


Riff 1
                ^ ^         ^                ^ ^         ^
e|----------------------------------------------------------|
b|----------------------------------------------------------|
g|----------------------------------------------------------|
D|----------------------------------------------------------|
A|-2---2-2-2---2222--2-2--3-2---2---2-2-2---2222--2-2--5-6--|
E|-0---0-0-0---0000--0-0--1-0---0---0-0-0---0000--0-0--3-4--|
     pm-----------------|         pm-----------------|

e|-----------------------------|
b|-----------------------------|
g|-----------------------------|
D|-----------------------------|
A|-2---2-2-2---2222--2-2--3-2--|
E|-0---0-0-0---0000--0-0--1-0--|
     pm-----------------|        


Fill 1    
                        ^
e|-------------------------|
b|-------------------------|
g|-------------------------|
D|-------------------------|
A|-2-2--2-2--2-2--222-5-4--|
E|-0-0--0-0--0-0--000-3-2--|
   *    *    *    ***

Main Riff

e|----------------------------------------------------------|
b|----------------------------------------------------------|
g|----------------------------------------------------------|
D|----------------------------------------------------------|
A|-2---2-2-2---2222--2-2--3-2---2---2-2-2---2222--2-2--5-6--|
E|-0---0-0-0---0000--0-0--1-0---0---0-0-0---0000--0-0--3-4--|
     pm-----------------|         pm-----------------|

                ^ ^         ^                ^ ^         ^
e|----------------------------------------------------------|
b|----------------------------------------------------------|
g|----------------------------------------------------------|
D|----------------------------------------------------------|   x2
A|-2---2-2-2---2222--2-2--3-2---2---2-2-2---2222--2-2--5-4--|
E|-0---0-0-0---0000--0-0--1-0---0---0-0-0---0000--0-0--3-2--|


Riff 2

e|-------------------------------------|  e|-------------------|
b|-------------------------------------|  b|-------------------|
g|-------------------------------------|  g|-------------------|
D|-------------------------------------|  D|-------------------|
A|-2---22-4-----2---22-5-----2---22-3--|  A|-5-4-3-2---2/12\2--|
E|-0---00-2-----0---00-3-----0---00-1--|  E|-3-2-1-0-----------|
       pm           pm           pm


e|-------------------------------------|  e|----------|
b|-------------------------------------|  b|----------|
g|-------------------------------------|  g|----------|
D|-------------------------------------|  D|----------|
A|-2---22-4-----2---22-5-----2---22-3--|  A|-5-4-3-2--|
E|-0---00-2-----0---00-3-----0---00-1--|  E|-3-2-1-0--|
       pm           pm           pm


Riff 1
                ^ ^         ^                ^ ^         ^
e|----------------------------------------------------------|
b|----------------------------------------------------------|
g|----------------------------------------------------------|
D|----------------------------------------------------------|
A|-2---2-2-2---2222--2-2--3-2---2---2-2-2---2222--2-2--5-6--|
E|-0---0-0-0---0000--0-0--1-0---0---0-0-0---0000--0-0--3-4--|
     pm-----------------|         pm-----------------|

e|-----------------------------|
b|-----------------------------|
g|-----------------------------|
D|-----------------------------|
A|-2---2-2-2---2222--2-2--3-2--|
E|-0---0-0-0---0000--0-0--1-0--|
     pm-----------------|


Main Riff
                ^ ^                          ^ ^         ^
e|----------------------------------------------------------|
b|----------------------------------------------------------|
g|----------------------------------------------------------|
D|----------------------------------------------------------|
A|-2---2-2-2---2222--2-2--3-2---2---2-2-2---2222--2-2--5-6--|
E|-0---0-0-0---0000--0-0--1-0---0---0-0-0---0000--0-0--3-4--|
     pm-----------------|         pm-----------------|

                ^ ^         ^                ^ ^         ^
e|----------------------------------------------------------|
b|----------------------------------------------------------|
g|----------------------------------------------------------|
D|----------------------------------------------------------|   x2
A|-2---2-2-2---2222--2-2--3-2---2---2-2-2---2222--2-2--5-4--|
E|-0---0-0-0---0000--0-0--1-0---0---0-0-0---0000--0-0--3-2--|
     pm-----------------|         pm-----------------|


Fill 2

e|------------|
b|------------|
g|------------|
D|------------|
A|-2----------|
E|-0--2/12\2--|


Riff 3 (Under Tapping Solo) (Also not 100% sure about this part)

e|-------------------------------------------------------------------|
b|-------------------------------------------------------------------|
g|-------------------------------------------------------------------|
D|-------------------------------------------------------------------|  x2
A|-------------------------------------------------------------------|
E|-5555555555555555444444444444444477777777777777776666666666666666--|
 pm----------------------------------------------------------------|

Riff 4

e|----------------------------------------------------------------|
b|----------------------------------------------------------------|
g|----------------------------------------------------------------|
D|----------------------------------------------------------------|
A|-2-3-6-5--2-3-6-5--2-3-6-5--2-3-6-5--5-4-3-2--5-4-3-2--5-4-3-2--|
E|-0-1-4-3--0-1-4-3--0-1-4-3--0-1-4-3--3-2-1-0--3-2-1-0--3-2-1-0--|
                                      pm----|  pm----|  pm-----|

Fill 3
                       ^                         ^
e|--------------------------------------------------|
b|--------------------------------------------------|
g|--------------------------------------------------|
D|--------------------------------------------------|
A|-2-2-2--2-2-2--2-2-3-2--2--2-2-2--2-2-2--2-2-5-6--|
E|-0-0-0--0-0-0--0-0-1-0--0--0-0-0--0-0-0--0-0-3-4--|
 pm-----------------|      pm-----------------|
            
                       ^
e|------------------------|
b|------------------------|
g|------------------------|
D|------------------------|
A|-2-2-2--2-2-2--2-2-3-2--|
E|-0-0-0--0-0-0--0-0-1-0--|
pm-----------------|


e|------------------------|
b|------------------------|
g|------------------------|
D|------------------------|
A|-2-2--2-2--2-2--222-5\--|
E|-0-0--0-0--0-0--000-3\--|
   *    *    *    ***

Riff 1
               ^ ^         ^                ^ ^         ^
e|----------------------------------------------------------|
b|----------------------------------------------------------|
g|----------------------------------------------------------|
D|----------------------------------------------------------|
A|-2---2-2-2---2222--2-2--3-2---2---2-2-2---2222--2-2--5-6--|
E|-0---0-0-0---0000--0-0--1-0---0---0-0-0---0000--0-0--3-4--|
     pm-----------------|         pm-----------------|

e|-----------------------------|
b|-----------------------------|
g|-----------------------------|
D|-----------------------------|
A|-2---2-2-2---2222--2-2--3-2--|
E|-0---0-0-0---0000--0-0--1-0--|
     pm-----------------| 

Fill 1    
                        ^
e|-------------------------|
b|-------------------------|
g|-------------------------|
D|-------------------------|
A|-2-2--2-2--2-2--222-5-4--|
E|-0-0--0-0--0-0--000-3-2--|
   *    *    *    ***



Main Riff
                ^ ^                          ^ ^         ^
e|----------------------------------------------------------|
b|----------------------------------------------------------|
g|----------------------------------------------------------|
D|----------------------------------------------------------|
A|-2---2-2-2---2222--2-2--3-2---2---2-2-2---2222--2-2--5-6--|
E|-0---0-0-0---0000--0-0--1-0---0---0-0-0---0000--0-0--3-4--|
     pm-----------------|         pm-----------------|

                ^ ^         ^                ^ ^         ^
e|----------------------------------------------------------|
b|----------------------------------------------------------|
g|----------------------------------------------------------|
D|----------------------------------------------------------|   x2
A|-2---2-2-2---2222--2-2--3-2---2---2-2-2---2222--2-2--5-4--|
E|-0---0-0-0---0000--0-0--1-0---0---0-0-0---0000--0-0--3-2--|
     pm-----------------|         pm-----------------|

Riff 2

e|-------------------------------------|  e|----------|
b|-------------------------------------|  b|----------|
g|-------------------------------------|  g|----------|
D|-------------------------------------|  D|----------|
A|-2---22-4-----2---22-5-----2---22-3--|  A|-5-4-3-2--|
E|-0---00-2-----0---00-3-----0---00-1--|  E|-3-2-1-0--|
       pm           pm           pm


e|-------------------------------------|  e|----------|
b|-------------------------------------|  b|----------|
g|-------------------------------------|  g|----------|
D|-------------------------------------|  D|----------|
A|-2---22-4-----2---22-5-----2---22-3--|  A|-5-4-3-2--|
E|-0---00-2-----0---00-3-----0---00-1--|  E|-3-2-1-0--|
       pm           pm           pm

Fill 3
                       ^                         ^
e|-----------------------------------------------------|
b|-----------------------------------------------------|
g|-----------------------------------------------------|
D|-----------------------------------------------------|
A|-2--2-2-2--2-2-2--2-2-3-2--2--2-2-2--2-2-2--2-2-5-6--|
E|-0--0-0-0--0-0-0--0-0-1-0--0--0-0-0--0-0-0--0-0-3-4--|
     pm---------------|        pm---------------|
            
                          ^   ^ ^ ^ ^ ^ ^ ^ ^   ^                 
e|-------------------------------------------------|
b|-------------------------------------------------|
g|-------------------------------------------------|
D|-------------------------------------------------|
A|-2--2-2-2--2-2-2--2-2-3-2-------------------5-4--|
E|-0--0-0-0--0-0-0--0-0-1-0--0000000000000000-3-2--|
   pm-----------------|      ****************


Riff 1
               ^ ^         ^                ^ ^         ^
e|----------------------------------------------------------|
b|----------------------------------------------------------|
g|----------------------------------------------------------|
D|----------------------------------------------------------|
A|-2---2-2-2---2222--2-2--3-2---2---2-2-2---2222--2-2--5-6--|
E|-0---0-0-0---0000--0-0--1-0---0---0-0-0---0000--0-0--3-4--|
     pm-----------------|         pm-----------------|

e|-----------------------------|
b|-----------------------------|
g|-----------------------------|
D|-----------------------------|
A|-2---2-2-2---2222--2-2--3-2--|
E|-0---0-0-0---0000--0-0--1-0--|
     pm-----------------| 

Fill 1    
                        ^
e|-------------------------|
b|-------------------------|
g|-------------------------|
D|-------------------------|
A|-2-2--2-2--2-2--222-5-4--|
E|-0-0--0-0--0-0--000-3-2--|
   *    *    *    ***

Riff 1
               ^ ^         ^                ^ ^         ^
e|----------------------------------------------------------|
b|----------------------------------------------------------|
g|----------------------------------------------------------|
D|----------------------------------------------------------|
A|-2---2-2-2---2222--2-2--3-2---2---2-2-2---2222--2-2--5-6--|
E|-0---0-0-0---0000--0-0--1-0---0---0-0-0---0000--0-0--3-4--|
     pm-----------------|         pm-----------------|

e|-----------------------------|
b|-----------------------------|
g|-----------------------------|
D|-----------------------------|
A|-2---2-2-2---2222--2-2--3-2--|
E|-0---0-0-0---0000--0-0--1-0--|
     pm-----------------| 

Fill 1    
                        ^
e|--------------------------------|
b|--------------------------------|
g|--------------------------------|
D|--------------------------------|
A|-2-2--2-2--2-2--222-5-4--2------|
E|-0-0--0-0--0-0--000-3-2--0------|
   *    *    *    ***      (To fade)











       






      
Добавлено: 29.06.2012
Вам также может быть интересно:
Другие материалы по этой песне:
  • Аккорды и текст

Страница создана 29.06.2012
http://primanota.ru/acrassicauda/massacre-chords.htm
Привет, Гость.
Предлагаем пройти революционный курс по гитаре.
Подарок от PrimaNota.Ru, забирай!