PrimaNota.ru - самый крупный в мире бесплатный архив песенных текстов, аккордов, табулатур и нот


Acrassicauda - Garden Of Stones - таба, видео

Регистрация Запомнить меня
Войти через:  Facebook Google Twitter Vk Yandex Mail.ru

Acrassicauda - Garden Of Stones - таба, видео

Печатать
Просмотров: 176
Уроки эстрадного вокала в Санкт-Петербурге
-----------------------------------------------------------------------------
              Acrassicauda - Only the Dead See the End of the War
-----------------------------------------------------------------------------
Tabbed by: Garrett Padilla
Email: soldiers.of.filth@gmail.com

This is all I have so far, I will update later, when i get more figured out.
For the most part, these are Tony's lead parts, except where noted, meaning
I couldn't figure out Tony's parts, so instead I put Faisal's rhythm parts.

Tuning: Standard EADGBe

Intro Riff
e|--------------------------------------------------------------------------|
B|--------------------------------------------------------------------------|
G|-------7-9-6-7----------------------7-9-6-7-------------------------------|
D|---------------8-7-5-7~---------------------8-7-5-7~----------------------|
A|-7-777------------------7-7-777-7-7---------------------------------------|
E|-5-555------------------5-5-555-5-5---------------------------------------|
   . ...                  . . ... . .

e|--------------------------------------------------------------------------|
B|-------------------------10-8----8----------------------------------------|
G|------------------------------10---10-9-10-9p7p5-7~-----------------------|
D|---------7-9-6-7----------------------------------------------------------|
A|-7-777-7---------8-7-5-7~-------------------------------------------------|
E|-5-555-5------------------------------------------------------------------|
   . ... .
Riff 1 (Pre Verse)                                 x2
e|--------------------------------------------------------------------------|
B|--------------------------------------------------------------------------|
G|--------------------------------------------------------------------------|
D|---------------------------------------------7-6--------------------------|
A|-5-7-77778-7-5-7-7777-8-5-7-77778-7-5-7-7777-5-4-8------------------------|
E|-3-5-55556-5-3-5-5555-6-3-5-55556-5-3-5-5555-----6------------------------|

                                                   x2
e|--------------------------------------------------------------------------|
B|--------------------------------------------------------------------------|
G|--------------------------------------------------------------------------|
D|--------------------------------------------7-6---------------------------|
A|-777777887755777777888888777777887755777777-5-4-8-------------------------|
E|-555555665533555555666666555555665533555555-----6-------------------------|
   ..........................................

e|--------------------------------------------------------------------------|
B|-10-8----8----------------------------------------------------------------|
G|------10---10-9-10-9p7p5-7~-----------------------------------------------|
D|--------------------------------------------------------------------------|
A|--------------------------------------------------------------------------|
E|--------------------------------------------------------------------------|

Verse Riff
(Repeat following 2 bars 4 times)
e|--------------------------------------------------------------------------|
B|--------------------------------------------------------------------------|
G|--------------------------------------------------------------------------|
D|--------------------------------------------------------------------------|
A|-7777-7777-7777-7777-7777-7777-777777888888-------------------------------|
E|-5555-5555-5555-5555-5555-5555-555555666666-------------------------------|
        ....      ....      ....
e|----------------------------------------------------------------------------|
B|----------------------------------------------------------------------------|
G|-------------------------------8-7------------------------------------------|
D|-----------------------------------9-8--------------------------------------|
A|-7777-7777-7777-7777-7777-7777-6-5------------------------------------------|
E|-5555-5555-5555-5555-5555-5555-----7-6--------------------------------------|
        ....      ....      ....

Chorus Build Up (Faisal/Rhythm Guitar)
e|--------------------------------------------------------------------------|
B|--------------------------------------------------------------------------|
G|---------------------------------------------8-7--------------------------|
D|---------------------7-6-------------------------9-8----------------------|
A|-77-77-77-77-77-77-7-5-4-8-77-77-77-77-77-77-6-5--------------------------|
E|-55-55-55-55-55-55-5-----6-55-55-55-55-55-55-----7-6----------------------|
   .. .. .. .. .. ..         .. .. .. .. .. ..

************************************

| /   slide up
| \   slide down
| h   hammer-on
| p   pull-off
| ~   vibrato
| +   harmonic
| x   Mute note
| .   Palm mute
| b   Bend
| pb  Pre-bend
| br  Bend release
| pbr Pre-bend release
| brb Bend release bend

************************************
Добавлено: 20.05.2012
Вам также может быть интересно:
Другие материалы по этой песне:
  • Аккорды и текст

Страница создана 20.05.2012
http://primanota.ru/acrassicauda/garden-of-stones-chords.htm
Привет, Гость.
Предлагаем пройти революционный курс по гитаре.
Подарок от PrimaNota.Ru, забирай!