PrimaNota.ru - самый крупный в мире бесплатный архив песенных текстов, аккордов, табулатур и нот


Acranius - Expulsed To The Worthless - таба, видео

Регистрация Запомнить меня
Войти через:  Facebook Google Twitter Vk Yandex Mail.ru

Acranius - Expulsed To The Worthless - таба, видео

Печатать
Просмотров: 85
                                    X4
e|----------------------------------|
b|----------------------------------|
g|----------------------------------|
d|----------------------------------|
a|---------------1---------------*2-|
e|-2-1-0-1-2-1-0-1-2-1-0-1-212-0----|
a|-2-1-0-1-2-1-0-1-2-1-0-1-212-0----|

                                          X2
e|----------------------------------------|
b|----------------------------------------|
g|----------------------------------------|
d|----------------------------------------|
a|---5---4-----------5---4------------4-3-|
e|---3---2----3212---3---2------------4-3-|
a|-003-002-00-3212-003-002-00-000-000-4-3-|

                                   X4
e|---------------------------------|
b|---------------------------------|
g|---------------------------------|
d|---------------------------------|
a|-----------------------------5-3-|
e|-3-2-0-1-212-1-0-121-0-1-3-2-3-2-|
a|-3-2-0-1-212-1-0-121-0-1-3-2-----|

Play the powerchords on the e string 3 times en a pickscrape before the last one.
                   X4
e|-----------------|
b|-----------------|
g|-----------------|
d|-----------------|
a|-5-3-------------|
e|-3-2-323-2-121-0-|
a|-----323-2-121-0-|

                     X4
e|-------------------|
b|-------------------|
g|-------------------|
d|-------------------|
a|-5-4---------------|
e|-3-2-320-1-212-0-1-|
a|-----320-1-212-0-1-|

                                   X2
e|---------------------------------|
b|---------------------------------|
g|---------------------------------|
d|---------------------------------|
a|-----------------------------5-3-|
e|-3-2-0-1-212-1-0-121-0-1-3-2-3-2-|
a|-3-2-0-1-212-1-0-121-0-1-3-2-----|


e|-----|
b|-----|
g|-----|
d|-----|
a|-0---|
e|-0---|
a|-0---|

                                            X2
e|------------------------------------------|
b|------------------------------------------|
g|------------------------------------------|
d|------------------------------------------|
a|---1-12--54-2-23----1-12--444-444-333-333-|
e|-001012003202023--00101200333-333-222-222-|
a|-00101200--02023--00101200333-333-222-222-|


e|---------------|
b|---------------|
g|---------------|
d|---------------|
a|-0-------------|
e|-0-----0000000-|
a|-0-----0000000-|

                                            X2
e|------------------------------------------|
b|------------------------------------------|
g|------------------------------------------|
d|------------------------------------------|
a|---1-12--54-2-23----1-12--444-444-333-333-|
e|-001012003202023--00101200333-333-222-222-|
a|-00101200--02023--00101200333-333-222-222-|


e|--------------------------------------------------------------------------------------------|
b|--------------------------------------------------------------------------------------------|
g|--------------------------------------------------------------------------------------------|
d|--------------------------------------------------------------------------------------------|
a|---1-12-------------1-12---------------------1-12---------------------1-12------------------|
e|-001012000000000--00101200000-000-000-000--00101200000-000-000-000--00101200000-000-000-000-|
a|-001012000000000--00101200000-000-000-000--00101200000-000-000-000--00101200000-000-000-000-|

                                            X2
e|------------------------------------------|
b|------------------------------------------|
g|------------------------------------------|
d|------------------------------------------|
a|---1-12--54-2-23----1-12--444-444-333-333-|
e|-001012003202023--00101200333-333-222-222-|
a|-00101200--02023--00101200333-333-222-222-|

                                    X2
e|----------------------------------|
b|----------------------------------|
g|----------------------------------|
d|----------------------------------|
a|---------------1---------------*2-|
e|-2-1-0-1-2-1-0-1-2-1-0-1-212-0----|
a|-2-1-0-1-2-1-0-1-2-1-0-1-212-0----|

                                   X2
e|---------------------------------|
b|---------------------------------|
g|---------------------------------|
d|---------------------------------|
a|-----------------------------5-3-|
e|-3-2-0-1-212-1-0-121-0-1-3-2-3-2-|
a|-3-2-0-1-212-1-0-121-0-1-3-2-----|

e|----------|
b|----------|
g|----------|
d|----------|
a|----------|
e|-121-0-1--|
a|-121-0-1--|

                                   X4
e|---------------------------------|
b|---------------------------------|
g|---------------------------------|
d|---------------------------------|
a|-----------------------------5-3-|
e|-3-2-0-1-212-1-0-121-0-1-3-2-3-2-|
a|-3-2-0-1-212-1-0-121-0-1-3-2-----|
Добавлено: 03.06.2016
Вам также может быть интересно:
Другие материалы по этой песне:
  • Аккорды и текст

Страница создана 03.06.2016
http://primanota.ru/acranius/expulsed-to-worthless-chords.htm
Привет, Гость.
Предлагаем пройти революционный курс по гитаре.
Подарок от PrimaNota.Ru, забирай!