PrimaNota.ru - самый крупный в мире бесплатный архив песенных текстов, аккордов, табулатур и нот


Acranius - Dishonor - таба, видео

Регистрация Запомнить меня
Войти через:  Facebook Google Twitter Vk Yandex Mail.ru

Acranius - Dishonor - таба, видео

Печатать
Просмотров: 78
tuning: drop A

                    X5
E||-----------------||
B||-----------------||
G||-----------------||
D||-----------------||
A||-4-----5-4-------||
E||-1-010-2-1-0-1-0-||
A||-1-010-2-1-0-1-0-||
      ___     _ _ _

E|---------|
B|---------|
G|---------|
D|---------|
A|-4--5--4-|
E|-1--2--1-|
A|-1--2--1-|


                                   X3
E|---------------------------------||
B|---------------------------------||
G|---------------------------------||
D|---------------------------------||
A|---------------------------------||
E|-6-5-3-5-3-232-0-6-5-3-5-3-232---||
A|-6-5-3-5-3-232-0-6-5-3-5-3-232-0-||
     _ _ _ _ ___ _   _ _ _ _ ___


E|---------------------|
B|---------------------|
G|---------------------|
D|---------------------|
A|-6-----5-----3-------|
E|-6-----5-----3-232-0-|
A|-6-000-5-000-3-232-0-|
     ___   ___   ___ _
 
                                                                                 X2
E||------------------------------------------------------------------------------||
B||------------------------------------------------------------------------------||
G||---------------------------------------------------(ten's not 1's and zero's)-||
D||------------------------------------------------------------------------------||
A||------------------------------------------------------6666-5555-10101010-9999-||
E||------------------------------------------------------------------------------||
A||-333-222-666-555---333-222-666-555---333-222-666-555--------------------------||
    ___ ___ ___ ___   ___ ___ ___ ___   ___ ___ ___ ___


E|---------|
B|---------|
G|---------|
D|---------|
A|---------|
E|-------0-|
A|-0-000-0-|
     ___ _

                                                                                 X2
E||------------------------------------------------------------------------------||
B||------------------------------------------------------------------------------||
G||---------------------------------------------------(ten's not 1's and zero's)-||
D||------------------------------------------------------------------------------||
A||------------------------------------------------------6666-5555-10101010-9999-||
E||------------------------------------------------------------------------------||
A||-333-222-666-555---333-222-666-555---333-222-666-555--------------------------||
    ___ ___ ___ ___   ___ ___ ___ ___   ___ ___ ___ ___


E|------------------------------------------------|
B|------------------------------------------------|
G|------------------------------------------------|
D|------------------------------------------------|
A|-65-3-5--65-3-2-----------65-3-5--6----56---5---|
E|-65-3-5--65-3-2--222-222--65-3-5--6-00-56-0-5-\-|
A|-65-3-5--65-3-2--222-222--65-3-5--6-00-56-0-5-\-|
                   ___ ___            __    _


E|------------------------------------|
B|------------------------------------|
G|------------------------------------|
D|------------------------------------|
A|-6--3-5-2----------6--3-5-222222222-|
E|-6--3-5-2----------6--3-5-222222222-|
A|-6003050200000000--6003050222222222-|
    __ _ _ ________   __ _ _


E|------------------------------------|
B|------------------------------------|
G|------------------------------------|
D|------------------------------------|
A|-6--3-5-2----------6--3-5-22222-----|
E|-6--3-5-2----------6--3-5-22222-----|
A|-6003050200000000--600305022222-----|
    __ _ _ ________   __ _ _

                                       X2
E||------------------------------------||
B||------------------------------------||
G||------------------------------------||
D||------------------------------------||
A||-6--3-5-2----------6--3-5-222222222-||
E||-6--3-5-2----------6--3-5-222222222-||
A||-6003050200000000--6003050222222222-||
     __ _ _ ________   __ _ _

                                  X4
E||-------------------------------||
B||-------------------------------||
G||-------------------------------||
D||-------------------------------||
A||-6---------------6-----------3-||
E||-6-5-3-5-3-2-3-2-6-5-3-5-3-2-3-||
A||-6-5-3-5-3-2-3-2-6-5-3-5-3-2-3-||
      _ _ _ _ _ _ _   _ _ _ _ _ 


E|-----|
B|-----|
G|-----|
D|-----|
A|-8-7-|
E|-6-5-|
A|-----|


                                   X2    
E|---------------------------------||
B|---------------------------------||
G|---------------------------------||
D|---------------------------------||
A|---------------------------------||
E|-6-5-3-5-3-232-0-6-5-3-5-3-232---||
A|-6-5-3-5-3-232-0-6-5-3-5-3-232-0-||
     _ _ _ _ ___ _   _ _ _ _ ___

                                                                                 X4
E||------------------------------------------------------------------------------||
B||------------------------------------------------------------------------------||
G||---------------------------------------------------(ten's not 1's and zero's)-||
D||------------------------------------------------------------------------------||
A||------------------------------------------------------6666-5555-10101010-9999-||
E||------------------------------------------------------------------------------||
A||-333-222-666-555---333-222-666-555---333-222-666-555--------------------------||
    ___ ___ ___ ___   ___ ___ ___ ___   ___ ___ ___ ___
 
                    X5
E||-----------------||
B||-----------------||
G||-----------------||
D||-----------------||
A||-4-----5-4-------||
E||-1-010-2-1-0-1-0-||
A||-1-010-2-1-0-1-0-||
     ___     _ _ _


E|---|
B|---|
G|---|
D|---|
A|-4-|
E|-1-|
A|-1-|


                    X4
E||-----------------||
B||-----------------||
G||-----------------||
D||-----------------||
A||-4-------5-------||
E||-1-0-1-0-2-0-1-0-||
A||-1-0-1-0-2-0-1-0-||


E|---|
B|---|
G|---|
D|---|
A|---|
E|---|
A|-1-|
     


Legend
_ palm mute
\ slide down
Добавлено: 15.07.2015
Вам также может быть интересно:
Другие материалы по этой песне:
  • Аккорды и текст

Страница создана 15.07.2015
http://primanota.ru/acranius/dishonor-chords.htm
Привет, Гость.
Предлагаем пройти революционный курс по гитаре.
Подарок от PrimaNota.Ru, забирай!