PrimaNota.ru - самый крупный в мире бесплатный архив песенных текстов, аккордов, табулатур и нот


Acrania - Susceptible To Retinal Based Reprogrammability - таба, видео

Регистрация Запомнить меня
Войти через:  Facebook Google Twitter Vk Yandex Mail.ru

Acrania - Susceptible To Retinal Based Reprogrammability - таба, видео

Печатать
Просмотров: 116
 I play this on my 7-sting in drop A. But this song never goes lower then the third fret 
so you could
perfectly play it in drop C.

E|---------------------------------------|
B|---------------------------------------|
G|---------------------------------------|
D|---------------------------------------|
A|-3----------------------------------4--|
E|-3--3467----9-8---8-7---9-8---8-7-764--|
A|-3--3467--3-----3-----3-----3-----764--|
      ____  * * * * * * * * * * * * __

                                          X2
E||---------------------------------------||
B||---------------------------------------||
G||---------------------------------------||
D||---------------------------------------||
A||---------------------------------------||
E||-3-434-76-43-467--3-434-76-43-3333-3-3-||
A||-3-434-76-43-467--3-434-76-43-4444-4-4-||
    _ ___ __ __ ___  _ ___ __ __ ____ _ _


                      X4
E||-------------------||
B||-------------------||
G||-------------------||
D||-------------------||
A||-------------------||
E||---------8-7-434-3-||
A||-3--56-------------||
    *  **   * * *** *


E|----------------------------------|
B|----------------------------------|
G|----------------------------------|
D|----------------------------------|
A|----------------------------------|
E|-3-434-76-43-467--3-434-76-43-3-3-|
A|-3-434-76-43-467--3-434-76-43-4-4-|
   _ ___ __ __ ___  _ ___ __ __ _ _


E|-----------------------------------|
B|-----------------------------------|
G|-----------------------------------|
D|-----------------------------------|
A|-----------3-------------------3---|
E|-3-434-76-43--3-434-76-4346476-3-3-|
A|-3-434-76-43--3-434-76-4346476-3-3-|
   _ ___ __ _   _ ___ __ _______   _

                                                                  X2
E||---------------------------------------------------------------||
B||---------------------------------------------------------------||
G||---------------------------------------------------------------||
D||---------------------------------------------------------------||
A||---------------------------------------------------------------||
E||-4-7-4-5-8-5-4-7-4-811811710710-4-7-4-5-8-5-4-7-4--------------||
A||---7-4---8-5---7-4----------------7-4---8-5---7-4-811811710710-||
    * _ _ * _ _ * _ _              * _ _ * _ _ * _ _

                                                       X4
E||----------------------------------------------------||
B||----------------------------------------------------||
G||----------------------------------------------------||
D||----------------------------------------------------||
A||-4-----5-----4---------------4-----5-----4----------||
E||-4-7-4-5-8-5-4-7-4-8-11-7-10-4-7-4-5-8-5-4-7-4--4-3-||
A||---7-4---8-5---7-4-8-11-7-10---7-4---8-5---7-4--4-3-||
      _ _   _ _   _ _ _ __ _ __   _ _   _ _   _ _  _ _


E|-------------------------|
B|-------------------------|
G|-------------------------|
D|-------------------------|
A|-------------------------|
E|---4----------4------6545|
A|-4--45-43---4--45-43-6545|
   * *** **   * *** **  ____

                             X2
E||--------------------------||
B||--------------------------||
G||--------------------------||
D||--------------------------||
A||-------------------3------||
E||---4----------4----3-3333-||
A||-4--45-43---4--45-43-4433-||
    * *** **   * *** *  ____


                                                                                         
      X2
E||--------------------------------------------------------------------------------------------||
B||--------------------------------------------------------------------------------------------||
G||--------------------------------------------------------------------------------------------||
D||--------------------------------------------------------------------------------------------||
A||--------------------------------------------------------------------------------------------||
E||---8---8-------------------8---8-5434-----------8---8-----------------4545-6767-7878-910910-||
A||-3---3---555-444-333-444-3---3---5434-555-555-3---3---555-444-333-444-----------------------||
    * * * * ___ ___ ___ ___ * * * * ____ ___ ___ * * * * ___ ___ ___ ___

                                                                    X2
E||-----------------------------------------------------------------||
B||-----------------------------------------------------------------||
G||-----------------------------------------------------------------||
D||-----------------------------------------------------------------||
A||-----------------------------------------------------------------||
E||---------8---8---------8---8---------8---8-4545-6767-7878-910910-||
A||-43-43-3---3---43-43-3---3---43-43-3---3-------------------------||
    *_ *_ * * * * *_ *_ * * * * *_ *_ * * * *

E|---------------------------------------|
B|---------------------------------------|
G|---------------------------------------|
D|---------------------------------------|
A|-3----------------------------------4--|
E|-3--3467----9-8---8-7---9-8---8-7-764--|
A|-3--3467--3-----3-----3-----3-----764--|
      ____  * * * * * * * * * * * * __

                                          X2
E||---------------------------------------||
B||---------------------------------------||
G||---------------------------------------||
D||---------------------------------------||
A||---------------------------------------||
E||-3-434-76-43-467--3-434-76-43-3333-3-3-||
A||-3-434-76-43-467--3-434-76-43-4444-4-4-||
    _ ___ __ __ ___  _ ___ __ __ ____ _ _


Legend
_ palm mute
* tremolo picking
Добавлено: 24.10.2015
Другие материалы по этой песне:
  • Аккорды и текст

Страница создана 24.10.2015
http://primanota.ru/acrania/susceptible-to-retinal-based-reprogrammability-chords.htm
Привет, Гость.
Предлагаем пройти революционный курс по гитаре.
Подарок от PrimaNota.Ru, забирай!