PrimaNota.ru - самый крупный в мире бесплатный архив песенных текстов, аккордов, табулатур и нот


Acoustic Alchemy - With You In Mind - таба, видео

Регистрация Запомнить меня
Войти через:  Facebook Google Twitter Vk Yandex Mail.ru

Acoustic Alchemy - With You In Mind - таба, видео

Печатать
Просмотров: 81
		   WITH YOU IN MIND
As recorded by Acoustic Alchemy

Transcribed by Massimo Piccardo

|---0-------0-----|---0-------0-----|---0-------0-----|
|-------0-------0-|-------0-------0-|-------0-------0-|
|-----6-------6---|-----8-------8---|-----2-------2---|
|---------7-------|---------9-------|---------2-------|
|-----------------|-----------------|-----------------|
|-7---------------|-9---------------|-2---------------|
|
|-----------------|-----------------|-----------------|
|-----------------|-----------------|-----------------|
|-----------------|-----------------|-----------------|
|-----------------|-----------------|-----------------|
|-----------------|-----------------|-----------------|
|-----------------|-----------------|-----------------|


|---0-------0-------||
|-------0-------0--o||
|-----4-------4-----||
|---------4---------||
|------------------o||
|-4-----------------||
|
|-------------------||
|------------------o||
|-------------------||
|-------------------||
|------------------o||
|-------------------||


|---0--------0-----|---0--------0-----|---0--------0-----|
|--------0-------0-|--------0-------0-|--------0-------0-|
|------6-------6---|------8-------8---|------2-------2---|
|----------7-------|----------9-------|----------2-------|
|------------------|------------------|------------------|
|-7----------------|-9----------------|-2----------------|
|
|------7-7-----7-7-|---/9-------------|------------------|
|---/9-------9-----|------------------|------5-5-----5-7-|
|------------------|------------------|---/6-------6-----|
|------------------|------------------|------------------|
|------------------|------------------|------------------|
|------------------|------------------|------------------|


|---0--------0------|
|--------0-------0--|
|------4-------4----|
|----------4--------|
|-------------------|
|-4-----------------|
|
|-------------------|
|---7\-9------------|
|-------------------|
|-------------------|
|-------------------|
|-------------------|


|---0-------0-----|---0-------0-------|---0-------0------|
|-------0-------0-|-------0--------0--|-------0--------0-|
|-----6-------6---|-----8--------8----|-----2--------2---|
|---------7-------|---------9---------|---------2--------|
|-----------------|-------------------|------------------|
|-7---------------|-9-----------------|-2----------------|
|
|--p9-7-7---------|-------------------|------------------|
|----------p9-7-7-|-----------7\-9----|-5-7-9-5----------|
|-----------------|---------9------11-|---------6-6\-4-4-|
|-----------------|-------------------|------------------|
|-----------------|-------------------|------------------|
|-----------------|-------------------|------------------|


|---0-------0-------|
|-------0--------0--|
|-----4--------4----|
|---------4---------|
|-------------------|
|-4-----------------|
|
|----------------7--|
|-----------7\-9----|
|-------------------|
|-------------------|
|-------------------|
|-------------------|


|---0-------0-----|---0-------0------|---0--------0-----|
|-------0-------0-|-------0-------0--|--------0-------0-|
|-----6-------6---|-----8-------8----|-----2--------2---|
|---------7-------|---------9--------|----------2-------|
|-----------------|------------------|------------------|
|-7---------------|-9----------------|-2----------------|
|
|-9---7-7---------|------------------|------------------|
|-9---7-7h7-9-7-7-|-----------7-9-10-|-9---9/-7---9---7-|
|-----------------|---------9--------|----------9-------|
|-----------------|------------------|------------------|
|-----------------|------------------|------------------|
|-----------------|------------------|------------------|


|---0-------0-------|
|-------0--------0--|
|-----4--------4----|
|---------4---------|
|-------------------|
|-4-----------------|
|
|----------------7--|
|-----------7/-9----|
|-------------------|
|-------------------|
|-------------------|
|-------------------|


|----0---------0-----|---0--------0-----|---0-------0-----|
|--------0---------0-|--------0-------0-|-------0-------0-|
|------6---------6---|------8-------8---|-----2-------2---|
|----------7---------|----------9-------|---------2-------|
|--------------------|------------------|-----------------|
|-7------------------|-9----------------|-2---------------|
|
|-12-----9-9---------|------------------|-----------------|
|-14-----9-9h7-9-7-7-|---/5-----5-5-4-5-|-----------------|
|--------------------|------------------|-----------------|
|--------------------|------------------|-----------------|
|--------------------|------------------|-----------------|
|--------------------|------------------|-----------------|


|---0-------0------|
|-------0-------0--|
|-----4-------4----|
|---------4--------|
|------------------|
|-4----------------|
|
|------------------|
|---------5-5-4-5--|
|------------------|
|------------------|
|------------------|
|------------------|


|---0-------0-----|---0-------0-----|---0-------0-----|---0-------0------|
|-------0-------0-|-------0-------0-|-------0-------0-|-------0-------0--|
|-----6-------6---|-----8-------8---|-----2-------2---|-----4-------4----|
|---------7-------|---------9-------|---------2-------|---------4--------|
|-----------------|-----------------|-----------------|------------------|
|-7---------------|-9---------------|-2---------------|-4----------------|
|
|-----------------|-----------------|-----------------|------------------|
|-----------------|-----------------|---------5-5-4-5-|------------------|
|-----------------|-----------------|-----------------|------------------|
|-----------------|-----------------|-----------------|------------------|
|-----------------|-----------------|-----------------|------------------|
|-----------------|-----------------|-----------------|------------------|


|------------0------------|---------------0-------------|
|---------12----12--------|------------12-----12--------|
|------11----------11-----|--------11------------11-----|
|---10-----------------10-|-----10-------------------10-|
|-0-----------------------|-0---------------------------|
|-------------------------|-----------------------------|
|
|------------14-12--------|-----------------------------|
|------------------13\-12-|-----------------------------|
|-------------------------|-14\-12-14\-16-14\-12-11\-12-|
|-------------------------|-----------------------------|
|-------------------------|-----------------------------|
|-------------------------|-----------------------------|


|--------0---------|-------0----------|
|-7----------7-----|-7---------7------|
|----0-----------0-|---0-----------0--|
|------7-------7---|-----7-------7----|
|------------------|------------------|
|-8--------8-------|-8-------8--------|
|
|------------------|------------------|
|------------------|------------------|
|-11---------------|------------------|
|------------------|------------------|
|------------------|------------------|
|------------------|------------------|


   1.
|-------------0---|-0----------------|-----------2-----|-----------2-----|
|---------0-----0-|---0--------------|-------3-----3---|-------3-----3---|
|-------1---1-----|-----1-------1----|-----2---------2-|-----2---------2-|
|-----4-----------|-------4---4----4-|---4-------------|---4-------------|
|---2-------------|---------2--------|-2-------2-------|-2-------2-------|
|-0---------------|-0----------------|-----------------|-----------------|
|
|-----------------|------------------|-----------------|-----------------|
|-----------------|------------------|-----------------|-----------------|
|-----------------|-------------4\-6-|-7---------6-4-4-|-------------4---|
|-----------------|---------6-7------|-----------------|-----------7-----|
|-----------------|-------7----------|-----------------|-----------------|
|-----------------|------------------|-----------------|-----------------|


|--------------0---|-0----------------|-----------2-----|-----------2-----|
|----------0-----0-|---0--------------|-------3-----3---|-------3-----3---|
|--------1---1-----|-----1-------1----|-----2---------2-|-----2---------2-|
|------4-----------|-------4---4----4-|---4-------------|---4-------------|
|----2-------------|---------2--------|-2-------2-------|-2-------2-------|
|-0----------------|-0----------------|-----------------|-----------------|
|
|------------------|------------------|-----------------|-----------------|
|------------------|------------------|-------------5-7-|-----------------|
|------------------|-------------4\-6-|-7---------7-----|-----------------|
|-/6---------------|---------6-7------|-----------------|-----------------|
|------------------|-------7----------|-----------------|-----------------|
|------------------|------------------|-----------------|-----------------|


|----------2-------|---------2-------|---------0--------|---------0-------|
|--------2---2-----|-------2---2-----|-------0----0-----|-------0---0-----|
|------4-------4---|-----4-------4---|-----2--------2---|-----2-------2---|
|---4------------4-|---4-----------4-|---2------------2-|---2-----------2-|
|------------------|-----------------|------------------|-----------------|
|-4----------------|-4---------------|-2----------------|-2---------------|
|
|------------------|-----------------|------------------|-------------5-7-|
|-7-6------9-------|-----------------|-----7-9-10-9-7---|-----------5-----|
|------8-6---------|-----------------|---6------------9-|-9---------------|
|------------------|-----------------|------------------|-----------------|
|------------------|-----------------|------------------|-----------------|
|------------------|-----------------|------------------|-----------------|


|----------0-------|---------0-------|----------0-------|
|--------1---1-----|-------1---1-----|-------0----0-----|
|------2-------2---|-----2-------2---|-----6--------6---|
|---2------------2-|---2-----------2-|---7------------7-|
|-0----------------|-0---------------|------------------|
|------------------|-----------------|-7----------------|
|
|-8-7--5-----------|-----------------|------------------|
|--------8---------|-8-7---5-5-------|-5----------------|
|------------------|-----------------|---8---6\-4-------|
|------------------|-----------------|------------------|
|------------------|-----------------|------------------|
|------------------|-----------------|------------------|


|---0-------0--------|
|-------0---------0--|
|-----8--------8-----|
|---------9----------|
|--------------------|
|-9------------------|
|
|--------------------|
|--------------------|
|-----------/4-------|
|--------------6\-4--|
|--------------------|
|--------------------|

                                     2.
|---0-------0-----|---0-------0-----|-----------2-----|-----------2------|
|-------0-------0-|-------0-------0-|-3-----3-----3---|-3-----3-----3----|
|-----2-------2---|-----4-------4---|-----2---------2-|-----2---------2--|
|---------2-------|---------4-------|---4-------------|---4--------------|
|-----------------|-----------------|-2-------2-------|-2-------2--------|
|-2---------------|-4---------------|-----------------|------------------|
|
|-----------------|-----------------|-----------------|------------------|
|-----------------|-----------------|-----------------|------------------|
|-----------------|-----------------|-----------------|------------------|
|-----------------|-----------------|-----------------|------------------|
|-----------------|-----------------|-----------------|------------------|
|-----------------|-----------------|-----------------|------------------|


|-------------0---|----|
|---------0-----0-|----|
|-------1---1-----|----|
|-----4-----------|----|
|---2-------------|----|
|-0---------------|-0--|
|
|-----------------|----|
|-----------------|----|
|-----------------|----|
|-----------------|----|
|-----------------|----|
|-----------------|----|
-- 
     
Добавлено: 31.10.2013
Другие материалы по этой песне:

Страница создана 10.04.2012
http://primanota.ru/acoustic-alchemy/with-you-in-mind-chords.htm
Привет, Гость.
Предлагаем пройти революционный курс по гитаре.
Подарок от PrimaNota.Ru, забирай!