PrimaNota.ru - самый крупный в мире бесплатный архив песенных текстов, аккордов, табулатур и нот


Acoustic Alchemy - Clear Air For Miles - таба, видео

Регистрация Запомнить меня
Войти через:  Facebook Google Twitter Vk Yandex Mail.ru

Acoustic Alchemy - Clear Air For Miles - таба, видео

Печатать
Просмотров: 152
Acoustic Alchemy
1991-Back on the Case
Clear Air For Miles


Rhy. 1 Guitar 1

E-------------------------------------------------------------------------|
B--------------------------------12---------------------------------------|
G---10-10---10-10---10-10-----12---------12-------------------------------|
D---------0-------0-----------------------------12------------------------|
A--------------------------0----------0------10---------------------------|
E-------------------------------------------------------------------------|

Play Rhy. 1 four times

Solo 1 Guitar 2

E----sl------------------------------------------------------------sl-----|
B---8--10--------------8------------------------------------------8--10---|
G---------7----------7---9----sl--sl-----------9-9-7-7-10-10-9-9----------|
D-------------10-8----------10--12--10---7-8-8----------------------------|
A-------------------------------------------------------------------------|
E-------------------------------------------------------------------------|


E-----sl------------8---sl------------------------------------------------|
B---10--8---8-10-11----8--10--10-----------10-------sl--------------------|
G--------------------------------7-------7----10--10--12--12-9------------|
D----------------------------------10-8-----------------------------------|
A-------------------------------------------------------------------------|
E-------------------------------------------------------------------------|


E-------------------------------------------------------------------------|
B---------------------10-11-8---------------------------------------------|
G-----sl--sl--------7---------10-9--------sl------------------------------|
D---10--12--10--7-8-----------------10--10--12--12-10-12------------------|
A-------------------------------------------------------------------------|
E-------------------------------------------------------------------------|

Solo 2 Guitar 2

E----sl-------------------------------------------------------------------|
B---8--10--10----------10-------sl----------------------------------------|
G-------------7------7----10--10--12--12-9----sl--sl-----------9-9-7-7----|
D---------------10-8------------------------10--12--10---7-8-8------------|
A-------------------------------------------------------------------------|
E-------------------------------------------------------------------------|


E---------------sl------sl------------8---sl------------------------------|
B--------------8--10--10--8---8-10-11----8--10--10----------10-------sl---|
G---10-10-9-9--------------------------------------7------7----10--10--12-|
D----------------------------------------------------10-8-----------------|
A-------------------------------------------------------------------------|
E-------------------------------------------------------------------------|


E-------------------------------------------------------------------------|
B----------------------------10-11-8------------------------------sl------|
G---12-9----sl--sl---------7---------10-9--------sl--------------7--10----|
D---------10--12--10---7-8-----------------10--10--12--12-10-12-----------|
A-------------------------------------------------------------------------|
E-------------------------------------------------------------------------|


E---------------------------------------------sl--------------------------|
B---------sl-----------11----11-10------10--10--7--8----------------------|
G-------10--12------12----12----------------------------------------------|
D---12-----------12-----------------12------------------------------------|
A-------------------------------------------------------------------------|
E-------------------------------------------------------------------------|
Добавлено: 06.11.2013
Другие материалы по этой песне:
  • Аккорды и текст

Страница создана 06.11.2013
http://primanota.ru/acoustic-alchemy/clear-air-for-miles-chords.htm
Привет, Гость.
Предлагаем пройти революционный курс по гитаре.
Подарок от PrimaNota.Ru, забирай!