PrimaNota.ru - самый крупный в мире бесплатный архив песенных текстов, аккордов, табулатур и нот


Acidman - Golden Capella - бас-таба, видео

Регистрация Запомнить меня
Войти через:  Facebook Google Twitter Vk Yandex Mail.ru

Acidman - Golden Capella - бас-таба, видео

Печатать
Просмотров: 174
Уроки эстрадного вокала в Санкт-Петербурге
----------------------------------------------------------------------------
	             (GOLDEN CAPELLA) - Acidman
----------------------------------------------------------------------------

Tabbed By : Kevin Croner (Kevin2407)
e-mail: kevincroner@hotmail.com

Tuning: Standard

Intro: No bass

-

Verse: Starts when drums come in at 0:11

G|----------------------------------------------------------------|
D|----------------------------------------------------------------|
A|----------------------------------------------------------------|
E|5-5-5-5-5-5-5-5-5-5-5-5-5-5-5-5-7-7-7-7-7-7-7-7-7-7-7-7-7-7-7-7-| x5

Pre-Chorus: 0:35

G|----------------------------------------------------------------|
D|----------------------------------------------------------------|
A|----------------------------------------------------------------|
E|--------------------------------7-7-7-7-7-7-7-7-7-7-7-7-7-7-7-7-| x1

Chorus: 0:40

G|----------------------------------------------------------------|
D|----------------------------------------------------------------|
A|----------------------------------------------------------------| -
E|9-9-9-9-9-9-9-9-9-9-9-9-9-9-9-9-7-7-7-7-7-7-7-7-7-7-7-7-7-7-7-7-|  |
                                                                     |
G|----------------------------------------------------------------|  |-x2
D|----------------------------------------------------------------|  |
A|------------------------------------------------4-4-4-4---------| -
E|5-5-5-5-5-5-5-5-5-5-5-5-5-5-5-5-4-4-4-4-4-4-4-4---------4-4-4-4-|

Intro again: No bass

Verse + Solo: (Play Verse x12)

At 2:09 bass stops, starts again at 2:19 (Play Verse x1)

Then Pre-Chorus x1, and Chorus x4


| /  slide up
| \  slide down
| h  hammer-on
| p  pull-off
| ~  vibrato
| +  harmonic
| x  Mute note

============================================================================
Добавлено: 24.02.2012
Другие материалы по этой песне:
  • Аккорды и текст

Страница создана 24.02.2012
http://primanota.ru/acidman/golden-capella-chords.htm
Привет, Гость.
Предлагаем пройти революционный курс по гитаре.
Подарок от PrimaNota.Ru, забирай!