PrimaNota.ru - самый крупный в мире бесплатный архив песенных текстов, аккордов, табулатур и нот


Acid Witch - Into The Cave - таба, видео

Регистрация Запомнить меня
Войти через:  Facebook Google Twitter Vk Yandex Mail.ru

Acid Witch - Into The Cave - таба, видео

Печатать
Просмотров: 166
Уроки эстрадного вокала в Санкт-Петербурге
Intro:
                                      pickslide
|----------------------------------------------|
|----------------------------------------------|
|----------------------------------------------|
|-3--------5-------7---7-7--7--------x\--------|
|-3--------5-------7---7-7--7--------x\--------|
|-1--------3-------5---5-5--5--------x\--------|

Verse:

|--------------------------------------------|
|--------------------------------------------|
|--------------------------------------------|
|-------2-------5----4/7-------7--9--5-------|
|-------2-------5----4/7-------7--9--5-------|
|--(0)--0--0-0--3----2/5--0-0--5--7--3-------|
           . .            . .

|------------------------------------------|
|------------------------------------------|
|------------------------------------------|
|-----2-------5----4/7-------7-----5-------|
|-----2-------5----4/7-------7-----5-------|
|-----0--0-0--3----2/5--0-0--5-----3-------|
         . .            . .

Variation (It uses this on the others verses, as the beginning before the vocals come in.):


|-----------------------------------|
|-----------------------------------|
|-----------------------------------|
|----------2--4/7-------7--9--5-----|
|----------2--4/7-------7--9--5-----|
|-0-0-0-0--0--2/5--0-0--5--7--3-----|
  . . . .          . .

|-----------------------------------|
|-----------------------------------|
|-----------------------------------|
|----------2--4/7-------7-----5-----|
|----------2--4/7-------7-----5-----|
|-0-0-0-0--0--2/5--0-0--5-----3-----|
  . . . .          . .

Chorus:


|-------------------------------------|
|-------------------------------12----|
|--------------------------10-9-------|
|--2-------3/5-------2----------------|
|--2-------3/3-------2----------------|
|--0-------1/3-------0----------------|


Interlude:


|-----------------------|
|-----------------------|
|-2----3/5----2----3/5--|
|-2----3/5----2----3/5--|
|-0----1/3----0----1/3--|
|-----------------------|
                   
                   Wierd effect here
|------------------------------------|
|------------------------------------|
|------------------4---5---4---7-----|
|--2---------------4---5---4---7-----|
|--2---------------2---3---2---5-----|
|--0--0-0-0-0-0-0--------------------|
      . . . . . .

Riff before solo:


|--------------------------|
|--------------------------|
|-2----3/5----5--7--3------|
|-2----3/5----5--7--3------|
|-0----1/3----3--5--1------|
|--------------------------|

|--------------------------|
|--------------------------|
|-2----3/5----5-----3------|
|-2----3/5----5-----3------|
|-0----1/3----3-----1------|
|--------------------------|


Wish I could tab the solo, but I can't. Sorry.

They are signed to razorback records, I am pretty sure. I couldn't find an official site.
Добавлено: 15.07.2012
Вам также может быть интересно:
Другие материалы по этой песне:

Страница создана 15.07.2012
http://primanota.ru/acid-witch/into-the-cave-chords.htm
Привет, Гость.
Предлагаем пройти революционный курс по гитаре.
Подарок от PrimaNota.Ru, забирай!