PrimaNota.ru - самый крупный в мире бесплатный архив песенных текстов, аккордов, табулатур и нот


Acid King - Electric Machine - таба, видео

Регистрация Запомнить меня
Войти через:  Facebook Google Twitter Vk Yandex Mail.ru

Acid King - Electric Machine - таба, видео

Печатать
Просмотров: 135
Авторы музыки: Lori S
Авторы текста: Lori S
Can't find really any Acid King tabs anywhere.
Not guaranteeing that it's 100% accurate. But it's what I've figured out.

Artist: Acid King
Song: Electric Machine
Album: Busse Woods

|---------------------------------------------|
|---------------------------------------------|
|--9~--9-7--7-9-12----------------------------|
|--9~--9-7--7-9-12----------------------------|
|--7~--7-5--5-7-10--9--9--9--9--9-9-9-9-9--3--|
|-------------------7--7--7--7--7-7-7-7-7--1--|

|---------------------------------------------------------------------------|-----------|--------------------|
|---------------------------------------------------------------------------|-----------|--------------------|
|---------------------------------------------------------------------------|---repeat--|--------------------|
|--9--9--9\7-7-7-7/9/12\7--7/9--9--9\7-7-7-7/9/12\7--7/9--9--9\7-7-7-7/9/12-|---a-few---|--------------------|
|--7--7--7\5-5-5-5/7/10\5--5/7--7--7\5-5-5-5/7/10\5--5/7--7--7\5-5-5-5/7/10-|---times---|-7-7---8-8-8-8-8-8--|
|---------------------------------------------------------------------------|-----------|-5-5-0-6-6-6-6-6-6--|

|-------------------------------------------------------------------------------------------------|
|-------------------------------------------------------------------------------------------------|
|-------------------------------------------------------------------------------------------------|repeat 
|--9-9-9\7----------7--9-9-9\7-----------9-9-9\7----------7--9-9-9\7------------------------------|x amount
|--7-7-7\5---8--8-8-5--7-7-7\5---8--8-8--7-7-7\5---8--8-8-5--7-7-7\5---8--8-8--7-7---8-8-8-8-8-8--|of times
|----------0-6--6-6------------0-6--6-6----------0-6--6-6------------0-6--6-6--5-5-0-6-6-6-6-6-6--|

|---------------------------------------------------------|
|---------------------------------------------------------|
|---------------------------------------------------------|repeat
|--9~---15\9-9-7-7/9-9-9-9---15-15-15-15\9-9-7-7/9-9-9-9--|x amount
|--7~---13\7-7-5-5/7-7-7-7---13-13-13-15\7-7-5-5/7-7-7-7--|of times
|---------------------------------------------------------|

After this is a solo type thing. I haven't got it QUITE right. But I'll tab what I think it is.

|--------------------------------------------------------------------------------------------------|
|--------------------------------------------------------------------------------------------------|
|--------------------------------------------------------------------------------------------------|
|-------------------------------------------5-5-5-5------------------------------------------------|
|-/5-5-4-7-----------7--------------5-5-4-7---------7-5-5-5-5h7p5----5-5-4-7---------7-------------|
|----------0-5-0-6/7---0-5-0-6/7-0--------------------------------7----------0-5-6/7---0-5-0-6/7-0-|

|--------------------------------------------------------------------------------------------------------------|
|--------------------------------------------------------------------------------------------------------------|
|-----------------------------------------12-12h14p12--------------------------------12-12h14p12---------------|
|----------5555/777/9999/12-12-12-12-12h14-----------12-14-14-14-14-12-12-12-12-12h14-----------12-14-14-14-14-|
|-/5-5-4-7-----------------------------------------------------------------------------------------------------|
|--------------------------------------------------------------------------------------------------------------|

|---------------------------------------------------------------------------------------|
|---------------------------------------------------------------------------------------|
|------------------12-12h14p12--------------------------------12-12h14p12---------------|
|-12-12-12-12-12h14-----------12-14-14-14-14-12-12-12-12-12h14-----------12-14-14-14-14-|
|---------------------------------------------------------------------------------------|
|---------------------------------------------------------------------------------------|

|--------------------------------------------------------------------------------------------------------------|
|--------------------------------------------------------------------------------------------------------------|
|--------------------------------------------------------------------------------------------------------------|
|------------------------------5-5-5-5-5-5------------------------------------------------------5555/777/999\22|
|-/5-5-4-7---------7-----------------------7-7-5h7-5---5-5-4-7-----------7--------------5-5-4-7----------------|
|----------0-5-6/7---0-5-6/7-0-----------------------7---------0-5-0-6/7--0-5-0-6/7-0--------------------------|

Aaaaaand vocals begin again

|---------------------------------------------------------------------------|-----------|--------------------|
|---------------------------------------------------------------------------|-----------|--------------------|
|---------------------------------------------------------------------------|---repeat--|--------------------|
|--9--9--9\7-7-7-7/9/12\7--7/9--9--9\7-7-7-7/9/12\7--7/9--9--9\7-7-7-7/9/12-|---a-few---|--------------------|
|--7--7--7\5-5-5-5/7/10\5--5/7--7--7\5-5-5-5/7/10\5--5/7--7--7\5-5-5-5/7/10-|---times---|-7-7---8-8-8-8-8-8--|
|---------------------------------------------------------------------------|-----------|-5-5-0-6-6-6-6-6-6--|

|--------------------|
|--------------------|
|--------------------|repeat
|-9-9-9\7----------7-|18 times
|-7-7-7\5---8--8-8-5-|
|---------0-6--6-6---|
Добавлено: 19.11.2015
Другие материалы по этой песне:
  • Аккорды и текст

Страница создана 19.11.2015
http://primanota.ru/acid-king/electric-machine-chords.htm
Привет, Гость.
Предлагаем пройти революционный курс по гитаре.
Подарок от PrimaNota.Ru, забирай!