PrimaNota.ru - самый крупный в мире бесплатный архив песенных текстов, аккордов, табулатур и нот


Acid Ghost - Theres No Use In Trying Anymore - таба, видео

Регистрация Запомнить меня
Войти через:  Facebook Google Twitter Vk Yandex Mail.ru

Acid Ghost - Theres No Use In Trying Anymore - таба, видео

Печатать
Просмотров: 18
Acid Ghost - There's No Use In Trying Anymore
Track 9 from the album "I Want To Hide My Face & Die" (2015).

Tabbed by Isaac Murguia, December 2015.
Originally uploaded to Ultimate-Guitar.com
Contact: www.youtube.com/user/Goadiroth

CAPO on 4th Fret. Relative to capo.
So many guitar layers! :D

INTRO:         [x2]                              [x2]
e|--------------------------------|---------------------------------|
B|--------------------------------|---------------------------------|
G|-------1---------------1--------|-------1---------------1---------|
D|---2-------2---2---2------2---2-|---2-------2---2---2-------2---2-|
A|-0---0---0---0---0---0------0---|---------------------------------|
E|--------------------------------|-0---0---0---0---0---0---0---0---|

e|--------------------------------|---------------------------------|
B|--------------------------------|---------------------------------|
G|--------------------------------|---------------------------------|
D|--------------------------------|---------------------/666-4-2----|
A|--------------------------------|------------------------------4--|
E|--------------------------------|---------------------------------|

CHORUS A:
  Guitar 1
e|---------------------------------------------------------------|
B|---------------------------------------------------------------|
G|---------------------------------4-----------------------------|
D|----------/666-4-2--------/666-4---6-----/666-4-2--------------|
A|-(4)---------------2------------------------------2------------|
E|------------------------------------------------------4---0----|
  Guitar 2
e|-----------------|---------------------|-----------------------------|
B|-----------------|---------------------|-----------------------------|
G|-----1-1---1-----|---1---1---1---1-----|---1---1---1---1---1---1---1-|
D|---2-----------2-|-------------------2-|-----------------------------|
A|-0-------0---0---|-0---0---0---0---0---|-0---0---0---0---0---0---0---|
E|-----------------|---------------------|-----------------------------|

e|--------------------------------|--------------------------------|
B|--------------------------------|--------------------------------|
G|-------1---------------1--------|-------1---------------1--------|
D|---2-------2---2---2------2---2-|---2-------2---2---2------2---2-|
A|--------------------------------|--------------------------------|
E|-0---0---0---0---0---0------0---|-0---0---0---0---0---0------0---|
  Guitar 3
e|-------4-----------4---|-------4--------------4--------|
B|---5-----5-----5-----5-|---5------5---5---5------5---5-|
G|-6---6-------6---6-----|-6---6------6---6---6------6---|
D|-----------------------|-------------------------------|
A|-----------------------|-------------------------------|
E|-----------------------|-------------------------------|

e|-------4-------4-------4---7-------|
B|---5-----5-5-----5-5-----5---9-7---|
G|-6---6---------------------------9-|
D|-----------------------------------|
A|-----------------------------------|
E|-----------------------------------|

VERSE A:
e|---------------------------------|---------------------------------|
B|---------------------------------|-------0---------------0---------|
G|-------1---------------1---------|-----------1---1---1-------1---1-|
D|---2-------2---2---2-------2---2-|---2-----2---2---2---2---2---2---|
A|-0---0---0---0---0---0---0---0---|-0---0---------------------------|
E|---------------------------------|---------------------------------|

e|---------------------------------|---------------------------------|
B|---------------------------------|---------------------------------|
G|-------1---------------1---------|-------1---------------1---------|
D|---2-------2---2---2-------2---2-|---2-------2---2---2-------2---2-|
A|---------------------------------|---------------------------------|
E|-0---0---0---0---0---0---0---0---|-0---0---0---0---0---0---0---0---|

VERSE B: (0:59)
  Guitar 1
e|---------------------------------|---------------------------------|
B|---------------------------------|---------------------------------|
G|-------1---------------1---------|-------1---------------1---------|
D|---2-------2---2---2-------2---2-|---2-------2---2---2-------2---2-|
A|-0---0---0---0---0---0---0---0---|-0---0---0---0---0---0---0---0---|
E|---------------------------------|---------------------------------|

e|---------------------------------|---------------------------------|
B|---------------------------------|---------------------------------|
G|-------1---------------1---------|-------1-------------------------|
D|---2-------2---2---2-------2---2-|---2-------2---2-----------------|
A|---------------------------------|---------------------------------|
E|-0---0---0---0---0---0---0---0---|-0---0---0---0-------------------|
  Guitar 2
e|-------4-----------4---|-------4--------------4--------|
B|---5-----5-----5-----5-|---5------5---5---5------5---5-|
G|-6---6-------6---6-----|-6---6------6---6---6------6---|
D|-----------------------|-------------------------------|
A|-----------------------|-------------------------------|
E|-----------------------|-------------------------------|

e|-------4-------4-------4---7-------|
B|---5-----5-5-----5-5-----5---9-7---|
G|-6---6---------------------------9-|
D|-----------------------------------| but there's no...
A|-----------------------------------|
E|-----------------------------------|

CHORUS B: "...uuusssseeee"
  Guitar 1
e|-00000000-00000000-00000000-00000000-|-00000000-00000000-00000000-00000000-|
B|-22222222-22222222-22222222-22222222-|-00000000-00000000-00000000-00000000-|
G|-11111111-11111111-11111111-11111111-|-11111111-11111111-11111111-11111111-|
D|-22222222-22222222-22222222-22222222-|-22222222-22222222-22222222-22222222-|
A|-00000000-00000000-00000000-00000000-|-22222222-22222222-22222222-22222222-|
E|-------------------------------------|-00000000-00000000-00000000-00000000-| [x2]
  Guitar 2
e|-------4-----------4---|-------4--------------4--------|
B|---5-----5-----5-----5-|---5------5---5---5------5---5-|
G|-6---6-------6---6-----|-6---6------6---6---6------6---|
D|-----------------------|-------------------------------|
A|-----------------------|-------------------------------|
E|-----------------------|-------------------------------|

e|-------4-------4-------4---7-------|
B|---5-----5-5-----5-5-----5---9-7---|
G|-6---6---------------------------9-|
D|-----------------------------------|
A|-----------------------------------|
E|-----------------------------------|
  Guitar 3       [x2]                             [x2]
e|---------------------------------|---------------------------------|
B|-------0---------------0---------|-------0---------------0---------|
G|---1-------1---1---1-------1---1-|---1-------1---1---1-------1---1-|
D|-2---2---2---2---2---2---2---2---|---------------------------------|
A|---------------------------------|---------------------------------|
E|---------------------------------|-0---0---0---0---0---0---0---0---|

e|-------0---------------0---------|---------------------------------|
B|---------------------------------|-------0---------------2---0-----|
G|---1-------1---1---1-------1---1-|---1-------2---1---1-----------1-|
D|-2---2---2---2---2---2---2---2---|-2---2---2---2---2---2---2---2---|
A|---------------------------------|---------------------------------|
E|---------------------------------|---------------------------------|

e|---------------------------------|---------------------------------|
B|-------0---------------0---------|-------0-------------------------|
G|---1-------1---1---1-------1---1-|---1-------2---1---1---1---1---1-|
D|---------------------------------|---------------------------------|
A|---------------------------------|---------------------------------|
E|-0---0---0---0---0---0---0---0---|-0---0---0---0---0---0---0---0---|

BRIDGE:    These next 2 guitar parts repeat until the end
           while the 3rd guitar plays the lead
  Guitar 1
e|-----4--------------4----------|
B|-----4--------------4----------|
G|--------4-4------------4-4-----|
D|-6-6--------7-6-6-6--------7-6-|
A|-------------------------------|
E|-------------------------------|
  Guitar 2
e|----44---------44---------44---------44---------|
B|-------55---------55---------55---------55------|
G|-66-------6666-------6666-------6666-------6664-|
D|------------------------------------------------|
A|------------------------------------------------|
E|------------------------------------------------|

e|----22---------22---------22---------22---------|
B|-------44---------44---------44---------44------|
G|-44-------4444-------4444-------4444-------4446-|
D|------------------------------------------------|
A|------------------------------------------------|
E|------------------------------------------------|

BRIDGE LEAD:
e|------------------|------------------|---------------------|------------------|
B|------------------|------------------|---------------------|------------------|
G|------------------|------------------|---------------------|------------------|
D|------------------|------------------|---------------------|------------------|
A|-6-6/7-7\2-2/4-4--|-6-6/7-7\2-2p0----|-7-7\6-6/14-14-12-11-|-7-7-6-6\2--------|
E|------------------|---------------4--|---------------------|-----------2/4-4--|

OUTRO LEAD: (until fade out)
e|---------------------------------------------------------|
B|---------------------------------------------------------|
G|---------------------------------------------------------|
D|---------------------------------------------------------|
A|------6--2-2-0------6--2-2-0------6--2-2-0------6--2-2---|
E|-4--4----------4--4----------4--4----------4--4--------2-|

e|---------------------------------------------------------|
B|---------------------------------------------------------|
G|---------------------------------------------------------|
D|---------------------------------------------------------|
A|------4--2-2--------4--2-2--------4--2-2--------4--2-2-0-|
E|-0--0--------2-0--0--------2-0--0--------2-0--0----------|

End. Please rate! :D
Добавлено: 20.06.2016
Другие материалы по этой песне:
  • Аккорды и текст

Страница создана 20.06.2016
http://primanota.ru/acid-ghost/theres-no-use-in-trying-anymore-chords.htm
Привет, Гость.
Предлагаем пройти революционный курс по гитаре.
Подарок от PrimaNota.Ru, забирай!