PrimaNota.ru - самый крупный в мире бесплатный архив песенных текстов, аккордов, табулатур и нот


Acid Black Cherry - Spell Magic - текст песни, таба, видео

Регистрация Запомнить меня
Войти через:  Facebook Google Twitter Vk Yandex Mail.ru

Acid Black Cherry - Spell Magic - текст песни, таба, видео

Печатать
Просмотров: 208
Авторы музыки: 林保徳
Авторы текста: 林保徳
|---------------------------------SPELL MAGIC-------------------------------|
|------------------------------Acid Black Cherry----------------------------|
Tabbed by: Blake Ioshi [ramen@taste.la]
Tuning: Standard eBGDAE

NOTE: In the song both guitars play the same.

Figure I [Intro]

e|--------------|
B|--------------|
G|--------------|
D|--------------| x2
A|-2-2--2-2-----|
E|-0-0--0-0-----|

Figure II [Intro II]                       |This is played by lead gu.|

e|------------------------------------|    e|----------------|
B|------------------------------------|    B|----------------|
G|------------------------------------| x4 G|----------------|
D|-------x-x--------------------------|    D|----------------|
A|-------x-x-2--2--2-2-2-2-2-2-2------|    A|----------------|
E|-3-0-0-x-x-0--0--0-0-0-0-0-0-0------|    E|-0-3-0-5/6-5-3--|

                   PM-----------.

Figure III [Main Riff]


Lead guitar              Rythm guitar
e|-------------------| e|--------------------|
B|-------------------| B|--------------------|
G|-------------------| G|--------------------| x3
D|-------------------| D|-2-2-2-2-8-8-7-5----|
A|-------------------| A|-2-2-2-2-8-8-7-5----|
E|-0-0-3-0-5/6-5-3---| E|--------------------|

                          PM-----.

e|-------------------| e|---------------------|
B|-------------------| B|---------------------|
G|-------------------| G|---------------------|
D|-------------------| D|-2-2-2-2-10-10-9-8---|
A|-------------------| A|-2-2-2-2-10-10-9-8---|
E|-0-0-3-0-8-8-7-6---| E|---------------------|
                          PM-----.

Figure IV [Verse] Just plays lead gu.

Em                       Em11+
Kore mo nanika no purei? Hottokarete kyou de 3 weeks x2

Figure III [Only lead]

Kyuu ni kyoshikunatte...

Figure V [Bridge] lalalalalala
e|--------------------------------|
B|--------------------------------|
G|--9-9-9-7--7-7-6--6-6-5--5-5-5--|
D|--9-9-9-7--7-7-6--6-6-5--5-5-5--|
A|--7-7-7-5--5-5-4--4-4-3--3-3-3--|
E|--------------------------------|

Repeat Figure III and V.

Chorus [Just try it! I want you magic baby...]
Figure III

Keep playing Figure III until 02:13 [Then play Figure V]

Chorus² »Figure II

Solo.... pending!

03:07 Play Figure IV in 5 then play Figure III just lead part.


e|---------------|
B|---------------|
G|-4-4--4-4------|
D|-4-4--4-4------|
A|-2-2--2-2------|
E|---------------|

Chorus x2

Figure III then

e|----------------------------|
B|----------------------------|
G|----------------------------|
D|-2-2--2-2-------2----2-2-2/-|
A|-2-2--2-2-------2----2-2-2/-|
E|-0-0--0-0-0-0-3-0----0-0-0--|

Remember, solo is pending, I try to tab it in guitar pro and submit it. Any questions 
me [ramen@taste.la] and that's all! See you next time!

http://www.acidblackcherry.net/
Добавлено: 20.04.2012
Вам также может быть интересно:
Другие материалы по этой песне:

Страница создана 08.03.2012
http://primanota.ru/acid-black-cherry/spell-magic-chords.htm
Привет, Гость.
Предлагаем пройти революционный курс по гитаре.
Подарок от PrimaNota.Ru, забирай!