PrimaNota.ru - самый крупный в мире бесплатный архив песенных текстов, аккордов, табулатур и нот


Acid Bath - The Bones Of A Baby Doll - таба, видео

Регистрация Запомнить меня
Войти через:  Facebook Google Twitter Vk Yandex Mail.ru

Acid Bath - The Bones Of A Baby Doll - таба, видео

Печатать
Просмотров: 137
"The Bones of Babydolls" by Acid Bath
Tabbed By RaveN

A minor  G   Amin  E all arpegiated.


Main intro riff

|---------------------------------------------------------------------|
|-1-1-1-1-1-1-1-1---0-------------------------------------------------|
|-0-0-0-0-0-0-0-0-----0-------2---------------------------------------|
|-2-------2--------2----0---2-----4-----4-4-4---4-4-4---4-4-4---4-4-4-|
|-3-------3------2--------0---------5---5-5-5---5-5-5---5-5-5---5-5-5-|
|--------------------3----------4-----4-------4-------4-------4-------| 

 (Amin)              (G)    (Amin)    (E)

Flower girls in love...(riff is played through intro verses)

Intro chorus riff.

|-----------------------|
|-----0--------0^1-1----|
|--------0--------------|
|---2------0--2-----2---|
|-0-------------------3-|
|-------3----0----------|    2x

 (Amin)(G)  (E)  (Amin)

I heard her...screaming like a radio...

Intro bridge riff.

|---------------------------------------------------------|
|-----4-----0^3^0-----0^1-1---------4-----3-----0^1-1-----|
|---------------------------------------------------------|
|---5-----4---------2-------2-----5-----4-----2-------2---|
|-6-----5---------0-----------3-6-----5-----0-----------3-|
|---------------------------------------------------------|    2x

PLAY INTRO TWICE

Last chord played at the end of intro
|---|
|-1-|
|---|
|-2-|
|-0-|
|---| Let ring.


Main song verse riff.

|-------0---------------1------------0---------------------|
|---------1-----------3---3------------1-------------0-----|
|-----2-----2-------2-------2------2-----2-------------1---|
|---2---------2---0--------------2---------2-------2-----2-|
|-0----------------------------0-----------------2---------|
|----------------------------------------------0-----------|

 (Amin)           (Dmin)       (A min)         (E)

...mary lou...left marks on you...

Main chorus riff.

|---------------1-1-1-1-1-------------------------------1-3-1-0-|
|-1-1-1-1-1-1-1-3-3-3-3-3-1-1-1-1-1-----------1-1-1-1-1-3-3-3-0-|
|-0^2-2-2-2-2-2-2-2-2-2-2-2-2-2-2-2-1-1-1-1-1-2-2-2-2-2-2-2-2-1-|
|-0^2-2-2-2-2-2-0-0-0-0-0-2-2-2-2-2-2-2-2-2-2-2-2-2-2-2-0-0-0-2-|
|-0-0-0-0-0-0-0-----------0-0-0-0-0-2-2-2-2-2-0-0-0-0-0-------2-|
|-----------------------------------0-0-0-0-0-----------------0-|

  (Amin)        (Dmin)    (Amin)    (E)       (Amin)    (Dmin)(E)

yeah...she smokes the bones of babydolls...

Outro riff.

|-------0----------------------------0-----|
|------------------------------------------|
|-----2---2------------------------2---2---|
|---2-------2----2---2---2-------2-------2-|
|-0------------3-------1---0---0-----------|
|------------------3-----------------------|

 (Amin)       (C) (G)          (Amin)

...everything's gone dry...like bottleglass scrapes across the pavement...
Добавлено: 19.03.2012
Другие материалы по этой песне:
  • Аккорды и текст

Страница создана 19.03.2012
http://primanota.ru/acid-bath/the-bones-of-a-baby-doll-chords.htm
Привет, Гость.
Предлагаем пройти революционный курс по гитаре.
Подарок от PrimaNota.Ru, забирай!