PrimaNota.ru - самый крупный в мире бесплатный архив песенных текстов, аккордов, табулатур и нот


Acid Bath - Paegan Love Song - текст песни, таба, видео

Регистрация Запомнить меня
Войти через:  Facebook Google Twitter Vk Yandex Mail.ru

Acid Bath - Paegan Love Song - текст песни, таба, видео

Печатать
Просмотров: 184
Artist - Acid Bath
Song - Paegen love song
Tuning - DGCFAD
.  - palm mute           /  - slide up to
  - slide down to       ~  - vibrato
h  - hammer on           b  - Bend
p  - pull off            Suffixes for bend
t  - tap                 f  - full bend    h - half bend
[] - pinched harmonic    q  - quarter bend t - tap bend
*  - see comment         ^  - Hold bend    r release bend
x  - Stuccatto           ~  - vibrato bend
,  - slight palm mute    () - ghost note, sustained note
"  - tremolo note        <> - Trill

Intro

|---------------------------------------------|
|---------------------------------------------|
|---------------------------------------------|
|---------------------------------------------|
|-----3-5-----------------3-5-------12~-------|
|-3-5-----3-4-5-3-4-5--3-5---3-4-5--10~-------|


Riff 1(10X)
Gtr 1
|-------------------------|
|-------------------------|
|-------------------------|
|-------------------------|
|-------3-5-5-------------|
|-3-5-5-------3-4-5-3-4-5-|

Gtr 2
|-------------------------|
|-------------------------|
|-------5-7-7-------------|
|-5-7-7-5-7-7-5-6-7-5-6-7-|
|-5-7-7-3-5-5-5-6-7-5-6-7-|
|-3-5-5-------3-4-5-3-4-5-|

|-----|
|-----|
|-----|
|-----|
|-12~-|
|-10~-|

Chorus Riff Both Gtrs(4X)
|------------------------------|
|------------------------------|
|------------------------------|
|-5/7-7-7-7-7-7-7-7-7-13-13-13-|
|-5/7-7-7-7-7-7-7-7-7-13-13-13-|
|-3/5-5-5-5-5-5-5-5-5-11-11-11-|


Play Intro Riff
Play Riff 1 2X
Play Riff 1
Play Chorus Riff
Play Riff 1
Play Chorus Riff
Play Riff 1
Play Chorus Riff
Play Riff 1
Play Chorus Riff
Play Chorus Riff 4X

Play Intro Riff
Play Riff 1 2X

Riff 2 Both Gtrs
|----------------------------------|
|----------------------------------|
|---------5----------------5---5/7-|
|-5/7-7-7-5-7-7-7-5/-7-7-7-5-7-5/7-|
|-5/7-7-7-3-7-7-7-5/-7-7-7-3-7-3/5-|
|-3/5-5-5---5-5-5-3/-5-5-5---5-----|

Riff 3 Both Gtrs
|--------------------------------|
|--------------------------------|
|---------5----------------5-----|
|-5/7-7-7-5-7-7-7-5/-7-7-7-5-7-5-|
|-5/7-7-7-3-7-7-7-5/-7-7-7-3-7-5-|
|-3/5-5-5---5-5-5-3/-5-5-5---5-3-|

Play Riff 2
Play Riff 3

Riff 4 Both Gtrs
|--------------------------------------------------------|
|--------------------------------------------------------|
|--------------------------------------------------------|
|-5/7-7-7-7-7-7-7-7-7-7-7-5/7-7-7-7-7-7-7-7-7-7-7--------|
|-5/7-7-7-7-7-7-7-7-7-7-7-5/7-7-7-7-7-7-7-7-7-7-7-101010-|
|-3/5-5-5-5-5-5-5-5-5-5-5-3/5-5-5-5-5-5-5-5-5-5-5--8-8-8-|

Play Riff 4 3X


Riff 5
|---------------------------------------------|
|---------------------------------------------|
|---------------------------------------------|
|-3-3-3-3-3-3-3-3-3-3-3-5-5-5-5-5-5-5-5-5-5-5-|
|-3-3-3-3-3-3-3-3-3-3-3-5-5-5-5-5-5-5-5-5-5-5-|
|-1-1-1-1-1-1-1-1-1-1-1-3-3-3-3-3-3-3-3-3-3-3-|

Play Riff 2
Play Riff 3
Play Riff 2
Play Riff 3
Play Riff 4

Play Over Riff 5, *Gradual Upward Bends
|----------------------------------------------------|
|*-15b(17)15b(17)15b(17)15b(17)15b(17)15b(17)15b(17)-| and so
|----------------------------------------------------|   on...
|----------------------------------------------------|
|----------------------------------------------------|
|----------------------------------------------------|

Under Solo:
|---------------------------------|
|---------------------------------|
|---------5---------------5---5/7-|
|-5-7-7-7-5-7-7-7-5-7-7-7-5-7-5/7-|
|-5-7-7-7-3-7-7-7-5-7-7-7-3-7-3/5-|
|-3-5-5-5---5-5-5-3-5-5-5---5-----|
  . . . .   . . . . . . .   .

|-----------------------------------|
|-----------------------------------|
|---------5---------------5---------|
|-5-7-7-7-5-7-7-7-5-7-7-7-5-7-5-5-5-|
|-5-7-7-7-3-7-7-7-5-7-7-7-3-7-5-5-5-|
|-3-5-5-5---5-5-5-3-5-5-5---5-3-3-3-|
  . . . .   . . . . . . .   . . . .

 Guitar Solo, easy as shit:

|---------------------------------------------------------------------|
|---------------------------------------------------------------------|
|*-----3-[5b](7)-----3-[5b](7)-----3-[5b](7)5b(7)5b(7)5b(7)5b(7)5b(7)-|
|-3-5------------3-5-----------3-5------------------------------------|
|---------------------------------------------------------------------|
|---------------------------------------------------------------------|
  . .  .         . . .         . . .
|-------------------------------------------------------------------|
|-------------------------------------------------------------------|
|--5h7p5--------5h7p5--------5h7p5--------5h7p5---------------------|
|--------5--5-7-------5--5-7-------5--5-7-------5--5-777-5-777------|
|-------------------------------------------------------------------|
|-------------------------------------------------------------------|

|-----------------------------|
|-----------------------------|
|-------5-777-----------------|
|-5-777-------5-677-5-677-----|
|-----------------------------|
|-----------------------------|


|-----------------------------------------------------------|
|*-15b(17)15b(17)15(17)15b(17)15b(17)17b(19)17b(19)17b(19)--|
|-----------------------------------------------------------|
|-----------------------------------------------------------|
|-----------------------------------------------------------|
|-----------------------------------------------------------|


|----------------------------|
|----------------------------|
|-----5-[7]------------------|
|-5-7-------5-6-[7]-5-6-[7]--|
|----------------------------|
|----------------------------|

|---------------------------------------------------|
|---------------------------------------------------|
|-----5-[7]---------<5-7>======================-----|
|-5-7-------5-6-[7]---------------------------------|
|---------------------------------------------------|
|---------------------------------------------------|

Riff 6
|---------------------------------------------------|
|---------------------------------------------------|
|-2-2-2-2----2---2-2---2--2-2-2-2---2---2-2/7-7-7---|
|---------6-6-6-5-5-6-6-6--------6-6-6-5-----7-7-7--|
|---------------------------------------------------|
|---------------------------------------------------|

Riff 7
|-------------------------------------------------|
|-------------------------------------------------|
|-----7-------------------7-----------------------|
|-7-7-7-7-5-5-5-5-7-7-7-7-7-7-5-5-5---------------|
|-7-7-5-7-5-5-5-5-7-7-7-7-5-7-5-5-5/(12)12--------|
|-5-5---5-3-3-3-3-5-5-5-5---5-3-3-3/(10)10--------|
      .   .     .   .     .   .

Play Riff 7 3X
Play Riff 6
Play Riff 7 3X
Play Riff 6

END
Добавлено: 28.06.2012
Другие материалы по этой песне:
  • Аккорды и текст

Страница создана 20.06.2012
http://primanota.ru/acid-bath/paegan-love-song-chords.htm
Привет, Гость.
Предлагаем пройти революционный курс по гитаре.
Подарок от PrimaNota.Ru, забирай!