PrimaNota.ru - самый крупный в мире бесплатный архив песенных текстов, аккордов, табулатур и нот


Acid Bath - God Machine - текст песни, таба, видео

Регистрация Запомнить меня
Войти через:  Facebook Google Twitter Vk Yandex Mail.ru

Acid Bath - God Machine - текст песни, таба, видео

Печатать
Просмотров: 144
Tune guitar down 2 steps to C
 IMPORTANT! --> . = palm mute   
 Intro     
 |--------------------------|------------------------|
 |--------------------------|------------------------|
 |-0-4-5------0-4-5-7--5--4-|-0-4-5----0-4-5--7--4---|
 |-0-4-5------0-4-5-7--5--4-|-0-4-5----0-4-5--7--4---|
 |-0-2-3------0-2-3-5--3--2-|-0-2-3----0-2-3--5--2---|
 |-0-2-3------0-2-3-5--3--2-|-0-2-3----0-2-3--5--2---|
   . .        . .             . .      . .
 
 Riff 1
 |----------------------------------------------------------|
 |----------------------------------------------------------|
 |----------------------------------------------------------|
 |----------------------------------------------------------|
 |----------------------------------------------------------|
 |-0-2-3-3-3-3-3-3-3-3-3-3-3-3-3-3-3-3-3-3--0-2-3-3-3-3-3-3-|
   . . . . . . . . . . . . . . . . . . . .  . . . . . . . .

 |---------------------------------------------------------------|
 |---------------------------------------------------------------|
 |---------------------------------------------------------------|
 |---------------------------------------------------------------|
 |---------------------------------------------------------------|
 |-5-5-5-5-5-5-3-3-3-3-3-2-2-2-2-2-2-2-2-3-3-3-3-2-2-2-2-2-2-2-2-|
  . . . . . . . . . . . . . . . . . . . . . . . . . . . . . . .

 Riff 2
 |----------------------------------------------------------------|
 |----------------------------------------------------------------|
 |----------------------------------------------------------------|
 |----------------------------------------------------------------|
 |----------------------------------------------------------------|
 |-0-2-3-3-3-3-3-3-3-3-3-3-3-3-3-3--0-2-3-3-3-3-3-3-5-5-5-5-5-5-5-|
   . . . . . . . . . . . . . . . . .  . . . . . . . . . . . . . . .


 |-------------------------------------------------|
 |-------------------------------------------------|
 |-------------------------------------------------|
 |-------------------------------------------------|
 |-------------------------------------------------|
 |-2-2-2-2-2-2-2-2-3-3-3-3-2-2-2-2-3-3-3-3-2-2-2-2-|
   . . . . . . . . . . . . . . . . . . . . . . . . 

 |---------------------------------|
 |---------------------------------|
 |---------------------------------|
 |---------------------------------|
 |---------------------------------|
 |-3-3-3-3-2-2-2-2-3-3-3-3-2-2-2-2-|
   . . . . . . . . . . . . . . . .

 Riff 3 (verse)
 |--------------------------------------------------------------|
 |--------------------------------------------------------------|
 |--------------------------------------------------------------|
 |----------------------------------------------------------3---|
 |-------------4-4-4-4---------6-6-6-6---------4-4-4-4----4---4-|
 |-0-2-3-3-3-3---------5-5-5-5---------3-3-3-3----------5-------|
   . . . . . . . . . . . . . . . . . . . . . . . . . . .

 |------------------------------------------------------|
 |------------------------------------------------------|
 |----------------------------------------5-----------5-|
 |-------------------------------------4-----4-----4----|
 |---------4-4-4-4---------6-6-6-6--3-----------3-------|
 |-3-3-3-3---------5-5-5-5------------------------------|
   . . . . . . . . . . . . . . . .  .           .

 var 1 (variation at very end of verse)
 |-------------------------|
 |-------------------------|
 |-------5------------4----|
 |----4-----4------3-----3-|
 |-3------------2----------|
 |-------------------------|
   .            .           

 Riff 4
 |--------------------------------------------------------------|
 |--------------------------------------------------------------|
 |--------------------------------------------------------------|
 |-2-4-5---5-5-5-5-5---5-5-5-5-5---5-5-5-5---2-4-5---5-5-5-5--7-|
 |-2-4-5---5-5-5-5-5---5-5-5-5-5---5-5-5-5---2-4-5---5-5-5-5--7-|
 |-0-2-3---3-3-3-3-3---3-3-3-3-3---3-3-3-3---0-2-3---3-3-3-3--5-|
   . . .   . . . . .   . . . . .   . . . .   . . .   . . . .  .

 |-----------------------------------|
 |-----------------------------------|
 |-----------------------------------|
 |-7-7-7-7-5---5-5-5-5-4---4-4-5-5-4-|
 |-7-7-7-7-5---5-5-5-5-4---4-4-5-5-4-|
 |-5-5-5-5-3---3-3-3-3-2---2-2-3-3-2-|
   . . . . .   . . . . .   . . . .

 Riff 5
          (play 5 times)
 |-------|-------------|--------|------------------|
 |-------|-------------|--------|------------------|
 |-------|-------------|--------|-----5--------4---|
 |-------|-------------|-5---4--|---4---4----3---3-|
 |-------|-6---6---4---|-5---4--|-3--------2-------|
 |-0-2-3-|---5---5---3-|-3---2--|------------------|
   . . .   . . . . . . 

 Riff 6
 |---------------------------------|
 |---------------------------------|
 |---------------------------------|
 |---------5----------4----------3-|
 |---------5----------4----------3-|
 |-0-0-0-0-3--0-0-0-0-2--0-0-0-0-1-|
   . . . .    . . . .    . . . .

 
 Riff 7
 |-------------------------------------------------------------|
 |-------------------------------------------------------------|
 |-------------------------------------------------------------|
 |-------------------------------------------------------------|
 |-------------------------------------3-3-3-3-3-3-------------|
 |-0-0-0-0-0-0-3-3-3-3-3-3-2-2-2-2-2-2-------------3-3-3-3-3-3-|
   . . . . . . . . . . . . . . . . . . . . . . . . . . . . . .

 |-------------------------------------------------|
 |-------------------------------------------------|
 |-------------------------------------------------|
 |-------------------------------------------------|
 |-------------------------6-6-6-6-6-6-------------|
 |-0-0-0-0-0-0-3-3-3-3-3-3-------------5-5-5-5-5-5-|
   . . . . . . . . . . . . . . . . . . . . . . . .

 |-------------------------|
 |-------------------------|
 |-------------------------|
 |-------------------------|
 |-4-4-4-4-4-4-------------|
 |-------------3-3-3-3-3-3-|
   . . . . . . . . . . . .

 Riff 8
 |------------------------------------------------|
 |------------------------------------------------|
 |------------------------------------------------|
 |-2-2---5-5---6-6---3-3---2-2---5-5---6--5--4--3-|
 |-2-2---5-5---6-6---3-3---2-2---5-5---6--5--4--3-|
 |-0-0---3-3---4-4---1-1---0-0---3-3---4--3--2--1-|
   .     .     .     .     .     .     .  .  .  .

 Riff 9
 |------------------|-------------|-----|
 |------------------|-------------|-----|
 |----4-----5--4----|-------------|-----|
 |-4--4--4--5--4--5-|-------------|--2--|
 |-4--2--4--3--2--5-|---2---3-2---|--2--|
 |-2-----2--------3-|-2---2-----3-|--0--|
   .     .        .

 Riff 10
 |--------------------------------------------------------------|
 |--------------------------------------------------------------|
 |--------------------------------------------------------------|
 |--------------------------------------------------------------|
 |--------------------------------------------------------------|
 |0-0-0-0-0-0-0-3-3-3-3-3-3-3-3-4-4-4-4-4-4-4-4-1-1-1-1-1-1-1-1-|
  . . . . . . . . . . . . . . . . . . . . . . . . . . . . . . . 
 
 Riff 11
 |--------------------------------------------------------------|
 |--------------------------------------------------------------|
 |--------------------------------------------------------------|
 |-2-2-2--5-5-5--6-6-6--3-3-3--2-2-2--5-5-5--6-6--5-5--4-4--3-3-|
 |-2-2-2--5-5-5--6-6-6--3-3-3--2-2-2--5-5-5--6-6--5-5--4-4--3-3-|
 |-0-0-0--3-3-3--4-4-4--1-1-1--0-0-0--3-3-3--4-4--3-3--2-2--1-1-|
   . .    . .    . .    . .    . . .  . .    . .  . .  . .  . . 

 Outro
 |------------|
 |------------|
 |------------|
 |-6--5--4--3-|
 |-6--5--4--3-|
 |-4--3--2--1-|
Добавлено: 07.03.2012
Другие материалы по этой песне:

Страница создана 07.03.2012
http://primanota.ru/acid-bath/god-machine-chords.htm
Привет, Гость.
Предлагаем пройти революционный курс по гитаре.
Подарок от PrimaNota.Ru, забирай!