PrimaNota.ru - самый крупный в мире бесплатный архив песенных текстов, аккордов, табулатур и нот


Achim Reinders - Brigitt - таба, видео

Регистрация Запомнить меня
Войти через:  Facebook Google Twitter Vk Yandex Mail.ru

Achim Reinders - Brigitt - таба, видео

Печатать
Просмотров: 116
~~~~~~~~~~~~~~~~~~~~~~~~~~~~~~~~~~~~~~~~~~~~~~~~~~~~~~~~~~~~~~~~~~
                 Achim Reinders - Brigitt
~~~~~~~~~~~~~~~~~~~~~~~~~~~~~~~~~~~~~~~~~~~~~~~~~~~~~~~~~~~~~~~~~~

Tuning: Standard (EADGBe)
Submitted By: Josh Byrnes

NOTE: This is NOT my tab, it is off Guitar-Pro. I submitted it because it is an awesome song to play.

                                                        
E||--2h-4-----------2-------|--2h-4p2p0--------0-------|
B||-----------5-------------|------------0-------------|
E||--------0-----------0----|---------0-----------0----|
B||-------------------------|--------------------------|
A||-------------------------|--------------------------|
E||--0-----------0----------|--0------------0----------|


--2h-4-----------7-------|--5p-4p-0--------0-------|--5-------4p-2----------|
-----------5/-7----------|-----------0-------------|----------------0h-2----|
--------0-----------0----|--------0-----------0----|-------0-----------0----|
-------------------------|-------------------------|------------------------|
-------------------------|-------------------------|--0----------0----------|
--0-----------0----------|--0-----------0----------|------------------------|


--5-------4p-2----------|--2h-4-----------2-------|--2h-4p2p0--------0-------|
----------------2h-4----|-----------5-------------|------------0-------------|
-------2-----------2----|--------0-----------0----|---------0-----------0----|
------------------------|-------------------------|--------------------------|
--2----------2----------|-------------------------|--------------------------|
------------------------|--0-----------0----------|--0------------0----------|


--2h-4-----------7-------|--5p-4p-0--------0-------|--5-------4p-2----------|
-----------5/-7----------|-----------0-------------|----------------0h-2----|
--------0-----------0----|--------0-----------0----|-------0-----------0----|
-------------------------|-------------------------|------------------------|
-------------------------|-------------------------|--0----------0----------|
--0-----------0----------|--0-----------0----------|------------------------|


--5-------4p-2----------|--2h-4-----------2-------|--2h-4-----------2-------|
----------------2h-4----|-----------5-------------|-----------5-------------|
-------2-----------2----|--------0-----------0----|--------0-----------0----|
------------------------|-------------------------|-------------------------|
--2----------2----------|-------------------------|-------------------------|
------------------------|--0-----------0----------|--0-----------0----------|


--2h-4-----------2-------|--2--4-----------2-------|--2h-3-----------2-------|
-----------5-------------|-----------5-------------|-----------5-------------|
--------0-----------0----|--------0-----------0----|--------0-----------0----|
-------------------------|-------------------------|-------------------------|
--4-----------4----------|--4-----------4----------|--3-----------3----------|
-------------------------|-------------------------|-------------------------|


--2h-3-----------3-------|--0h-2-----------2-------|--0-------------0-------|
-----------0-------------|-----------0-------------|----------7-------------|
--------0-----------0----|--------0-----------0----|-------7-----------7----|
-------------------------|--0-----------0----------|--0---------------------|
--3-----------3----------|-------------------------|-------------0----------|
-------------------------|-------------------------|------------------------|


--0-------------0-------|--0-------------0-------|--0-------------0-------|
----------4-------------|----------4-------------|----------4-------------|
-------4-----------4----|-------4-----------4----|-------5-----------5----|
------------------------|------------------------|------------------------|
------------------------|------------------------|--0----------0----------|
--4----------4----------|--4----------4----------|------------------------|


--0-------------0-------|--0-------------0-------|--0-------------0-------|
----------4-------------|----------4-------------|----------4-------------|
-------7-----------7----|-------4-----------4----|-------4-----------4----|
--0---------------------|------------------------|------------------------|
-------------0----------|------------------------|------------------------|
------------------------|--4----------4----------|--4----------4----------|


--0-------------0-------|--0-------------0-------|--2h-4-----------2-------|
----------4-------------|----------4-------------|-----------5-------------|
-------5-----------5----|-------7-----------7----|--------0-----------0----|
------------------------|--0----------0----------|-------------------------|
--0----------0----------|------------------------|-------------------------|
------------------------|------------------------|--0-----------0----------|


--2h-4p2p0--------0-------|--2h-4-----------7-------|--5p-4p-0--------0-------|
------------0-------------|-----------5/-7----------|-----------0-------------|
---------0-----------0----|--------0-----------0----|--------0-----------0----|
--------------------------|-------------------------|-------------------------|
--------------------------|-------------------------|-------------------------|
--0------------0----------|--0-----------0----------|--0-----------0----------|


--5-------4p-2----------|--5-------4p-2----------|--2h-4-----------2-------|
----------------0h-2----|----------------2h-4----|-----------5-------------|
-------0-----------0----|-------2-----------2----|--------0-----------0----|
------------------------|--0----------0----------|-------------------------|
--0----------0----------|------------------------|-------------------------|
------------------------|------------------------|--0-----------0----------|


--2--4-2-0--------0-------|--2h-4-----------7-------|--5p-4p-0--------0-------|
------------0-------------|-----------5/-7----------|-----------0-------------|
---------0-----------0----|--------0-----------0----|--------0-----------0----|
--------------------------|-------------------------|-------------------------|
--------------------------|-------------------------|-------------------------|
--0------------0----------|--0-----------0----------|--0-----------0----------|


--5-------4p-2----------|--5-------4p-2----------|--2h-4-----------2-------|
----------------0h-2----|----------------2h-4----|-----------5-------------|
-------0-----------0----|-------2-----------2----|--------0-----------0----|
------------------------|--0----------0----------|-------------------------|
--0----------0----------|------------------------|-------------------------|
------------------------|------------------------|--0-----------0----------|


--2h-4-----------2-------|--2h-4-----------2-------|--2h-4-----------2-------|
-----------5-------------|-----------5-------------|-----------5-------------|
--------0-----------0----|--------0-----------0----|--------0-----------0----|
-------------------------|-------------------------|-------------------------|
-------------------------|--4-----------4----------|--4-----------4----------|
--0-----------0----------|-------------------------|-------------------------|


--2h-3-----------2-------|--2--3-----------3-------|--0h-2-----------2-------|
-----------5-------------|-----------0-------------|-----------0-------------|
--------0-----------0----|--------0-----------0----|--------0-----------0----|
-------------------------|-------------------------|--0-----------0----------|
--3-----------3----------|--3-----------3----------|-------------------------|
-------------------------|-------------------------|-------------------------|


--0-------------0-------|--0-------------0-------|--0-------------0-------|
----------7--------0----|----------4-------------|----------4-------------|
-------7----------------|-------4-----------4----|-------4-----------4----|
--0---------------------|------------------------|------------------------|
-------------0----------|------------------------|------------------------|
------------------------|--4----------4----------|--4----------4----------|


--0-------------0-------|--0-------------0-------|--0-------------0-------|
----------4-------------|----------4-------------|----------4-------------|
-------5-----------5----|-------7-----------7----|-------4-----------4----|
------------------------|--0---------------------|------------------------|
--0----------0----------|-------------0----------|------------------------|
------------------------|------------------------|--4----------4----------|


--0-------------0-------|--0-------------0-------|--0-------------0-------|
----------4-------------|----------4-------------|----------4-------------|
-------4-----------4----|-------5-----------5----|-------7-----------7----|
------------------------|------------------------|--0----------0----------|
------------------------|--0----------0----------|------------------------|
--4----------4----------|------------------------|------------------------|


--0-----------------0--------|--0-----------------0--------|
------------10---------------|------------10---------------|
--------10-------------10----|--------10-------------10----|
-----------------------------|-----------------------------|
-----------------------------|-----------------------------|
--10------------10-----------|--10------------10-----------|


--0--------------0-------|--0--------------0-------|--0-------------0-------|
----------10-------------|----------10-------------|----------8-------------|
-------9------------9----|-------9------------9----|-------8-----------8----|
-------------------------|-------------------------|------------------------|
-------------------------|-------------------------|--0----------0----------|
--9-----------9----------|--9-----------9----------|------------------------|


--0-------------0-------|--0-------------0-------|--0-------------0-------|
----------8-------------|----------8-------------|----------7-------------|
-------8-----------8----|-------7-----------7----|-------7-----------7----|
------------------------|--0----------0----------|--0----------0----------|
--0----------0----------|------------------------|------------------------|
------------------------|------------------------|------------------------|


--5h-7-----------5-------|--5h-7p5p0--------0--5/-7--|
-----------9-------------|------------0h-2-----------|
--------0-----------0----|---------0-----------0-----|
-------------------------|---------------------------|
--0-----------0----------|--0------------0-----------|
-------------------------|---------------------------|


--7h-9------------7-------|--7h-9p7p0--------0-------|--4h-5-----------4-------|
-----------10-------------|------------0-------------|-----------7-------------|
--------0------------0----|---------0-----------0----|--------0-----------0----|
--------------------------|--------------------------|--0----------------------|
--0------------0----------|--0------------0----------|--------------2----------|
--------------------------|--------------------------|-------------------------|


--4h-5p4p0--------0-------|--2h-4-----------2-------|--2h-4-------------------|
------------0-------------|-----------5-------------|-----------2-----0-------|
---------0-----------0----|--------0-----------0----|--------0-----------0----|
--0------------0----------|-------------------------|-------------------------|
--------------------------|--0-----------0----------|--0-----------0----------|
--------------------------|-------------------------|-------------------------|


--2h-4-----------2-------|--2h-4p2p0--------0-------|--2h-4-----------7-------|
-----------5-------------|------------0-------------|-----------5/-7----------|
--------0-----------0----|---------0-----------0----|--------0-----------0----|
-------------------------|--------------------------|-------------------------|
-------------------------|--------------------------|-------------------------|
--0-----------0----------|--0------------0----------|--0-----------0----------|


--5p-4p-0--------0-------|--5-------4p-2----------|--5-------4p-2----------|
-----------0-------------|----------------0h-2----|----------------2h-4----|
--------0-----------0----|-------0-----------0----|-------2-----------2----|
-------------------------|------------------------|--0----------0----------|
-------------------------|--0----------0----------|------------------------|
--0-----------0----------|------------------------|------------------------|


--2h-4-----------2-------|--2h-4p2p0--------0-------|--2h-4-----------7-------|
-----------5-------------|------------0-------------|-----------5/-7----------|
--------0-----------0----|---------0-----------0----|--------0-----------0----|
-------------------------|--------------------------|-------------------------|
-------------------------|--------------------------|-------------------------|
--0-----------0----------|--0------------0----------|--0-----------0----------|


--5p-4p-0--------0-------|--5-------4p-2----------|--5-------4p-2----------|
-----------0-------------|----------------0h-2----|----------------2h-4----|
--------0-----------0----|-------0-----------0----|-------2-----------2----|
-------------------------|------------------------|--0----------0----------|
-------------------------|--0----------0----------|------------------------|
--0-----------0----------|------------------------|------------------------|


--5-------4p-2----------|--0-------------0-------|--0-------------0-------|
----------------2h-4----|----------7-------------|----------7-------------|
-------2-----------2----|-------4-----------4----|-------5-----------5----|
--2----------2----------|--0----------0----------|------------------------|
------------------------|------------------------|--0----------0----------|
------------------------|------------------------|------------------------|


--0-------------0-------|--0-------------0-------|--0-------------0-------|
----------7-------------|----------7-------------|----------7-------------|
-------7-----------7----|-------5-----------5----|-------4-----------4----|
------------------------|------------------------|--0----------0----------|
------------------------|--0----------0----------|------------------------|
--4----------4----------|------------------------|------------------------|


--0-------------0-------|--0-------------0-------|--0--------------0-------|
----------7-------------|----------7-------------|----------10-------------|
-------5-----------5----|-------7-----------7----|-------9------------9----|
------------------------|------------------------|-------------------------|
--0----------0----------|------------------------|--0-----------0----------|
------------------------|--4----------4----------|-------------------------|


--0---------------0--------|--0-------------0-------|--2h-4-----------2-------|
-----------12--------------|----------4-------------|-----------5-------------|
-------12------------12----|-------5-----------5----|--------0-----------0----|
--0------------0-----------|--0----------0----------|-------------------------|
---------------------------|------------------------|-------------------------|
---------------------------|------------------------|--0-----------0----------|


--2h-4-----------2-------|--2h-4-----------2-------|--2h-4-----------5-------|
-----------5-------------|-----------5-------------|-----------5/-7----------|
--------0-----------0----|--------0-----------0----|--------0-----------0----|
-------------------------|-------------------------|-------------------------|
-------------------------|--0-----------0----------|--0-----------0----------|
--0-----------0----------|-------------------------|-------------------------|

             
--4----------------||
--0----------------||
-------------------||
--0----------------||
--7----------------||
--0----------------||
Добавлено: 16.07.2012
Другие материалы по этой песне:

Страница создана 01.07.2012
http://primanota.ru/achim-reinders/brigitt-chords.htm
Привет, Гость.
Предлагаем пройти революционный курс по гитаре.
Подарок от PrimaNota.Ru, забирай!