PrimaNota.ru - самый крупный в мире бесплатный архив песенных текстов, аккордов, табулатур и нот


Ace Troubleshooter - Make It Right - текст песни, таба, видео

Регистрация Запомнить меня
Войти через:  Facebook Google Twitter Vk Yandex Mail.ru

Ace Troubleshooter - Make It Right - текст песни, таба, видео

Печатать
Просмотров: 131
Song: Make It Right
Album: It's Never Enough
Ace Troubleshooter
2004 Tooth & Nail Records

Enjoy :)

Intro:
Guitar 1
e-----------------------------------------------|
B-----------------------------------------------|
G-----------------------------------------------|
D-----------------------------------------------| play a bunch of times
A--5h7-5h7-5h7---------5h7-5h7-5h7--------------|
E--------------333333--------------33-3-3h5-----|

Guitar 2
e----------------------------------------------|
B-7777777777777777777777777777-----------------|
G--------------------------------7------6------|
D--------------------------------7------7------|
A--------------------------------5------4------|
E----------------------------------------------|
/-just kind of mute the string-/   let ring
     here (listen to song)

Verse
Just guitar 1 part of intro, only with some sort of effect that I don't know
the name of... don't know how to explain it... listen to song

Chorus
D5   A5   E5   G5
D5   A5      then back to intro riff (guitar 1&2)

then verse
then chorus
just a little different
D5   A5   E5   G5
D5   A5   E5   G5 a bunch of times

little interlude thing
Guitar 1:
e-----------------------------------------|
B-----------------------------------------|
G-----------------------------------------|
D-----------------------------------------| i think twice
A--5-777-55-7777-10-10-5-777-55-7777------|
E------------------------------------3-3--|
 /-----------palm-muted!------------------|

Guitar 2
e----------------------------------------|
B----------------------------------------|
G--9-7-9----9-7-9---9-7-9----------------|
D--------9--------9-------9-7-5-7-5------|
A----------------------------------------|
E----------------------------------------|

e---------------------------------|
B---------------------------------|
G--9-7-9----9-7-9---11-7---12-12--|
D--------9--------9------9--------|
A---------------------------------|
E---------------------------------|

Bridge:
e---------------|
B---------------|
G---------------|
D-5h7-7--5h7-7--| a few times
A---------------|
E---------------|

Chorus

then intro

end.

Enjoy!
Добавлено: 30.07.2012
Другие материалы по этой песне:
  • Аккорды и текст

Страница создана 04.07.2012
http://primanota.ru/ace-troubleshooter/make-it-right-chords.htm
Привет, Гость.
Предлагаем пройти революционный курс по гитаре.
Подарок от PrimaNota.Ru, забирай!