PrimaNota.ru - самый крупный в мире бесплатный архив песенных текстов, аккордов, табулатур и нот


Ace Frehley - Too Many Faces - таба, видео

Регистрация Запомнить меня
Войти через:  Facebook Google Twitter Vk Yandex Mail.ru

Ace Frehley - Too Many Faces - таба, видео

Печатать
Просмотров: 101
Уроки эстрадного вокала в Санкт-Петербурге
Авторы музыки: Ace Frehley
Авторы текста: Ace Frehley
Ace Frehley - Too many faces
Album: Anomaly
Year: 2009

INTRO

E -----------------------------|--------------------|
B -----------------------------|--------------------|
G -----------------------------|--------------------|
D ->9--R-->8--R-->7--R-->6-----|->9-->8-->7-->6-----|
A --x------x------x------x-----|--x---x---x---x-----|
E ->7--R-->6--R-->5--R-->4--/--|->7-->6-->5-->4--/--|

E ----------------------------------|
B ----------------------------------|
G ----------------------------------|
D -9-9-9-8-8-8-7-7-7-6-6-6--5-5-4---|
A -x-x-x-x-x-x-x-x-x-x-x-x--x-x-x---|
E -7-7-7-6-6-6-5-5-5-4-4-4--3-3-2-0-|

RIFF A

E ------------------------------------------------------------|
B ------------------------------------------------------------|
G ------------------------6-----------------------------------|
D -7/9-9.9-7->9-R-->7-R---7----------------7/9-9.9-7->9-R-----|
A -5/7-7.7-5->7-R-->5-R---4------>5--->5---5/7-7.7-5->7-R-----|
E ------------------------------->3--->2----------------------|

RIFF B VERSE (with variations)

note 1: let all tones ring

first 2 times:
E -----------------------------------------|
B ---4---4------5------4------2-----2------|
G ---4------4------4------4------2-----2---|
D -4-4-------------------------------------|
A -2-2-------------------------------------|
E -----------------------------------------|

E ---------------------------------------|
B -4---4------5------4------2-----2------|
G -4------4------4------4------2-----2---|
D -4-------------------------------------|
A -2-------------------------------------|
E ---------------------------------------|

E ---------------------------------------|
B -2---2------3------2------0-----0------|
G -2------2------2------2------0-----0---|
D -2-------------------------------------|
A -0-------------------------------------|
E ---------------------------------------|

afterwards:
E ---------------------------------------|
B -4---4------5------4------2------------|
G -4------4------4------4------2---------|
D -4-------------------------------------|
A -2-------------------------------------|
E ---------------------------------------|

note 2: lateron in the song, the high A tones 
gets replaced by F# tones on the G-string (4th position) 
and the high G tones by E tones on the G-string (2th position)

BREAK 1 like intro

guitar 1

E ----------------------------------|
B ----------------------------------|
G ----------------------------------|
D -9-9-9-8-8-8-7-7-7-6-6-6--5-5-4---|
A -x-x-x-x-x-x-x-x-x-x-x-x--x-x-x---|
E -7-7-7-6-6-6-5-5-5-4-4-4--3-3-2-0-|

guitar 2

E ---------------------------------|
B ---------------------------------|
G ---------------------------------|
D -9-9-9-8-8-8-7-7-7-6-6-6--5-5-4--|
A -9-9-9-8-8-8-7-7-7-6-6-6--5-5-4--|
E ---------------------------------|

RIFF C CHORUS

note: bass plays a C# tone when guitar plays the A chord

E --------^>0--------^>0-R--------------|
B --------^>0--------^>0-R--3----2------|
G --------------------------2----2------|
D --------------------------0----2------|
A --------------------------0----0------|
E -3b--0--------3b-0-----R--------------|
  -let ring-------------|

E --------^>0------------------------------------|
B --------^>0---------12------------12-R--12~-\--|
G --------------------12------------12-R--12~-\--|
D ----------------x-R-----14-R-14-R--------------|
A -----------------------------------------------|
E -3b--0-----------------------------------------|
  -let ring--|

E --------^>0--------^>0-R--------------|
B --------^>0--------^>0-R--3----2------|
G --------------------------2----2------|
D --------------------------0----2------|
A --------------------------0----0------|
E -3b--0--------3b-0-----R--------------|
  -let ring-------------|

E --------^>0------------------|
B --------^>0------------------|
G -----------------------------|
D -----------------------------|
A -----------------------------|
E -3b--0-----------0-0-0-0-0-0-|
  -let ring--|     slightlyPM-   

guitar 2 plays during the 1st and 3rd bar:

E --------^>0--------^>0-R---------------|
B --------^>0--------^>0-R---------------|
G --------------------------7~----6------|
D --------------------------7~----7------|
A --------------------------------0------|
E -3b--0--------3b-0-----R---------------|
  -let ring-------------|

BREAK 2

E ----------------------------------|
B ----------------------------------|
G ----------------------------------|
D --------------------------solo----|
A ->2-R-----------------------------|
E ->0-R-----------------------------|

SOLO 1

solo is played by 2nd guitar over riff A, Break 3 + the first bar of riff C

BREAK 3 like intro

E -----------------------------|--------------------|
B -----------------------------|--------------------|
G -----------------------------|--------------------|
D -----------------------------|--------------------|
A ->6--R-->5--R-->4--R-->3-----|->6-->5-->4-->3-----|
E ->7--R-->6--R-->5--R-->4--/--|->7-->6-->5-->4--/--|

E ------------------------------------|
B ------------------------------------|
G ------------------------------------|
D ------------------------------------|
A -6-6-6-5-5-5-4-4-4-3-3-3--2-0-5->7--|
E -7-7-7-6-6-6-5-5-5-4-4-4--3-0-------|

BREAK 4 like intro

guitar 1

E ----------------------------------|
B ----------------------------------|
G ----------------------------------|
D -9-9-9-8-8-8-7-7-7-6-6-6--5-5-4---|
A -x-x-x-x-x-x-x-x-x-x-x-x--x-x-x---|
E -7-7-7-6-6-6-5-5-5-4-4-4--3-3-2-0-|

guitar 2

note: do not strike the tones on the A-string (except for the first Eb tones)

E ---------------------------------|
B ---------------------------------|
G ---------------------------------|
D ---------------------------------|
A -6-6-6-5-5-5-4-4-4-3-3-3--2-2-1--|
E -7-7-7-6-6-6-5-5-5-4-4-4--3-3-2--|

ENDLICK 
(a greater number of guitars and with variations)

over riff A; fade-out

E ----------------------------------------------------------|
B -9~--9~-9~--10~--10~-10~--10-b-12---r--10~--9~--7~--7-7---|
G ----------------------------------------------------------|
D ----------------------------------------------------------|
A ----------------------------------------------------------|
E ----------------------------------------------------------|
Добавлено: 08.12.2015
Другие материалы по этой песне:
  • Аккорды и текст

Страница создана 08.12.2015
http://primanota.ru/ace-frehley/too-many-faces-chords.htm
Привет, Гость.
Предлагаем пройти революционный курс по гитаре.
Подарок от PrimaNota.Ru, забирай!