PrimaNota.ru - самый крупный в мире бесплатный архив песенных текстов, аккордов, табулатур и нот


Ace Frehley - Snow Blind - текст песни, таба, бас-таба, видео

Регистрация Запомнить меня
Войти через:  Facebook Google Twitter Vk Yandex Mail.ru

Ace Frehley - Snow Blind - текст песни, таба, бас-таба, видео

Печатать
Просмотров: 252
Авторы музыки: Ace Frehley
Авторы текста: Ace Frehley
Artist - Ace Frehley
Song Snow Blind
Album - Ace Frehley
Tabbed By Brandondime





 Solo
e:----------5---------5---------5-----------------------5---------5---------5|
B:----5--5--5---5--5--5---5--5--5-----------------5--5--5---5--5--5---5--5--5|
G:----7b--------7b--------7b--------7/5--7--5~----7b--------7b--------7b-----|
D:-------------------------------------7-------------------------------------|
A:---------------------------------------------------------------------------|
E:---------------------------------------------------------------------------|





e:-----------------------12----------12----------12--------12----------------|
B:--8b~-----------12--12-12---12--12-12---12--12--------12-------------------|
G:-------5--------14b---------14b---------14b-------14b-------14b~-----------|
D:---------7---------------------------------------------------------14-12---|
A:-------------------------------------------------------------------------14|
E:---------------------------------------------------------------------------|





e:----------------12----------12---------12-------12--------------5-5-----5-5|
B:---------12--12-12---12--12-12------12-------12-----15b~--------5-5-----5-5|
G:-12~-----14b---------14b---------14b------14b----------------7b------7b----|
D:---------------------------------------------------------------------------|
A:---------------------------------------------------------------------------|
E:---------------------------------------------------------------------------|





e:-----5-5-----5-5------5-5----------------------------5-5-----5-5-----5-5---|
B:-----5-5-----5-5------5-5----------------------------5-5-----5-5-----5-5---|
G:--7b------7b-------7b-------5/7/5--5--7-5---------7b------7b------7b------7|
D:----------------------------------7-------7--------------------------------|
A:--------------------------------------------5/3----------------------------|
E:---------------------------------------------------------------------------|





e:--5-5-----5-5-----------------------------------------------------12-----12|
B:--5-5-----5-5---8/5--5--8/5--5---8/5--5---------------------------12-----12|
G:b------7b-----------7-------7--------7--7-5-7/5---5-----------14b----14b---|
D:------------------------------------------------7---7/5/7------------------|
A:---------------------------------------------------------------------------|
E:---------------------------------------------------------------------------|





e:--15/12--12-------------------------------------12----12--15/12--12--------|
B:-------15--15/12-15/12--12----------------------12----12-------15--15-12---|
G:----------------------14--14-12--14b-12-14---14b---14b---------------------|
D:---------------------------------------------------------------------------|
A:---------------------------------------------------------------------------|
E:---------------------------------------------------------------------------|





e:-------------------12----12--15/12--12-------------------------------------|
B:12b-12-------------12----12-------15--15/12-15/12--12----------------------|
G:------14-12-----14b---14b------------------------14--14-12--14b-12-14----14|
D:---------------------------------------------------------------------------|
A:---------------------------------------------------------------------------|
E:---------------------------------------------------------------------------|





e:-12----12--15/12--12-------------------------------------------------------|
B:-12----12-------15--15-12--12b-12------------------------------------------|
G:b---14b--------------------------14-12---12-14b/14/12-12-14b/14/12-12-14b/1|
D:---------------------------------------------------------------------------|
A:---------------------------------------------------------------------------|
E:---------------------------------------------------------------------------|


                              
                              
             etc
e:----------------------------|
B:----------------------------|
G:4-12-12-14b/14-12--14-14b~~~|
D:----------------------------|
A:----------------------------|
E:----------------------------|
Добавлено: 22.03.2012
Другие материалы по этой песне:

Страница создана 22.03.2012
http://primanota.ru/ace-frehley/snow-blind-chords.htm
Привет, Гость.
Предлагаем пройти революционный курс по гитаре.
Подарок от PrimaNota.Ru, забирай!