PrimaNota.ru - самый крупный в мире бесплатный архив песенных текстов, аккордов, табулатур и нот


Ace Enders And A Million Different People - Red Eye - таба, видео

Регистрация Запомнить меня
Войти через:  Facebook Google Twitter Vk Yandex Mail.ru

Ace Enders And A Million Different People - Red Eye - таба, видео

Печатать
Просмотров: 128
This Song is amazing. Off The Secret Wars free album.  If anyone has trouble with
this or needs to see the strumming here is a link to me playing it exactly as tabbed below.
http://www.youtube.com/watch?v=5i9oJzW7rqw


Intro/verse
Gtr 1.
         (E)                      (A)
e|----------------------------------------------------|
B|-00-00-00-00--0--0----1010-1010-1010-1010--10--10---|(10's.  Not 1-0)
G|-99-99-99-99--9--9----9-9--9-9--9-9--9-9---9---9----|
D|-99-99-99-99--9--9----7-7--7-7--7-7--7-7---7---7----|
A|-77-77-77-77--7--7----------------------------------|
E|----------------------------------------------------|
         (C#)                     (A)                          > x2
e|----------------------------------------------------------|
B|-/1414-1414-1414--14--14---\1010-1010-1010-1010--10--10---|
G|-/1313-1313-1313--13--13---\9-9--9-9--9-9--9-9---9---9----|
D|-/1111-1111-1111--11--11---\7-7--7-7--7-7--7-7---7---7----|
A|----------------------------------------------------------|
E|----------------------------------------------------------|
(14's, 13's, 11's)


Gtr. 2 intro pt.1
    (E)         (A)          (C#)           (A)
e|----------------------------------------------------|
B|--12~---------10~------------9~-----------10~-------|
G|---9~----------9~------------9~------------9~-------|
D|----------------------------------------------------|
A|----------------------------------------------------|
E|----------------------------------------------------|

Then… intro pt.2

e|---/7-7-7-7-7-7--77----/5-5-5-5-5--5--7--5----------|
B|---/5-5-5-5-5-5--55----/5-5-5-5-5--5----------------|
G|----------------------------------------------------|
D|----------------------------------------------------|
A|----------------------------------------------------|
E|----------------------------------------------------|

e|---/4-4-4-4-4-4--5—-4---4---/5-5-5-5-5--5--7--5--4----|
B|---/5-5-5-5-5-5-------5-----/5-5-5-5-5--5----------5--|
G|------------------------------------------------------|
D|------------------------------------------------------|
A|------------------------------------------------------|
E|------------------------------------------------------|

Gtr. 2 verse
            (E)                                (A)
e|----------------------------------------------------------------|
B|-/1212-1212-1212-1212—12-12---\1010-1010-1010-1010--12--10------|
G|-/9-9--9-9--9-9--9-9---9--9----\9-9--9-9--9-9--9-9--------------|
D|----------------------------------------------------------------|
A|----------------------------------------------------------------|
E|----------------------------------------------------------------|
           (C#)                    (A)
e|----------------------------------------------------------------|
B|-9-9--9-9--9-9--9-9--10--9------10-10-10-10-10--12--10--9-------|
G|-9-9--9-9--9-9--9-9-------------9--9--9--9--9--------------9----|
D|----------------------------------------------------------------|
A|----------------------------------------------------------------|
E|----------------------------------------------------------------|


Verse pt2.
Cold rush through my veins…

Gtr. 1 (strumming pattern not show)

     (E)           (A)            (C#)            (A)
e|--0-0-0---------0-0-0----------0-0-0-----------0-0-0-----|
B|--0-0-0---------0-0-0----------0-0-0-----------0-0-0-----|
G|--1-1-1---------2-2-2----------6-6-6-----------2-2-2-----|
D|--2-2-2---------2-2-2----------6-6-6-----------2-2-2-----|
A|--2-2-2---------0-0-0----------4-4-4-----------0-0-0-----|
E|---------------------------------------------------------|

Gtr. 2

e|----------------------------------|
B|---12--12--12--12--12--12--12--12-|
G|-9---9---9---9---9---9---9---9----|
D|----------------------------------|
A|----------------------------------|
E|----------------------------------|

e|----------------------------------|
B|---10--10--10--10--12--12--12--10-|
G|-9---9---9---9---9---9---9---9----|
D|----------------------------------|
A|----------------------------------|
E|----------------------------------|

e|----------------------------------|
B|---9---9---9---10--10--10--9---9--|
G|-9---9---9---9---9---9---9---9----|
D|----------------------------------|
A|----------------------------------|
E|----------------------------------|

e|----------------------------------|
B|---10--10--10--10--12--12--10—-9--|
G|-9---9---9---9---9---9---9---9----|
D|----------------------------------|
A|----------------------------------|
E|----------------------------------|


Pre-chorus
Now you're the only thing…

Gtr.1 (strumming pattern not shown)

     (B)        (A)
e|--0-0-0--------------|
B|--0-0-0------2-2-2---|
G|--4-4-4------2-2-2---|
D|--4-4-4------2-2-2---|
A|--2-2-2------0-0-0---|
E|---------------------|

Gtr. 2

    (B)      (A)
e|-------------------------|
B|--12~------10~-----------|
G|--11~------9~~-----------|
D|--9-~------7~~-----------|
A|-------------------------|
E|-------------------------|

Chorus
So tonight I'll take the red eye…

Gtr. 1
     (E)           (A)            (C#)            (A)
e|--0-0-0---------0-0-0----------0-0-0-----------0-0-0-----|
B|--0-0-0---------0-0-0----------0-0-0-----------0-0-0-----|
G|--1-1-1---------2-2-2----------6-6-6-----------2-2-2-----|
D|--2-2-2---------2-2-2----------6-6-6-----------2-2-2-----|
A|--2-2-2---------0-0-0----------4-4-4-----------0-0-0-----|
E|---------------------------------------------------------|


Gtr. 2

e|----------------------------------|
B|---12--12--12--12--12--12--12--12-|
G|-9---9---9---9---9---9---9---9----|
D|----------------------------------|
A|----------------------------------|
E|----------------------------------|

e|----------------------------------|
B|---10--10--10--10--12--12--12--10-|
G|-9---9---9---9---9---9---9---9----|
D|----------------------------------|
A|----------------------------------|
E|----------------------------------|

e|----------------------------------|
B|---9---9---9---10--10--10--9---9--|
G|-9---9---9---9---9---9---9---9----|
D|----------------------------------|
A|----------------------------------|
E|----------------------------------|

e|----------------------------------|
B|---10--10--10--10--12--12--10—-9--|
G|-9---9---9---9---9---9---9---9----|
D|----------------------------------|
A|----------------------------------|
E|----------------------------------|


Bridge
Won't you stay with me tonight…

Gtr. 1

     (B)      (C#)      (A)
e|--0-0-0----/0-0-0----0-0-0--|
B|--0-0-0----/0-0-0----0-0-0--|
G|--4-4-4----/6-6-6----2-2-2--| x2
D|--4-4-4----/6-6-6----2-2-2—-|
A|--2-2-2----/4-4-4----0-0-0—-|
E|----------------------------|

Gtr. 2

      (B)         (C#)        (A)
e|------------------------------------|
B|--12-12-12---/14-14-14---\10-10-10--|
G|--10-10-10---/13-13-13---\9—-9--9---| x2
D|--9—-9--9----/11-11-11---\7—-7--7—--|
A|--------------------------—---------|
E|------------------------------------|

Break Down. (single strums until A)
So tonight…

    (E)     (A)     (C#)             (A)
e|---0~~-----0~~-----0~~-------00-00-00-00--0--0-|
B|---0~~-----0~~-----0~~-------00-00-00-00--0--0-|
G|---1~~-----2~~-----6~~-------22-22-22-22--2--2-|
D|---2~~-----2~~-----6~~-------22-22-22-22--2--2-|
A|---2~~-----0~~-----4~~-------00-00-00-00--0--0-|
E|-----------------------------------------------|

End
            (E)
e|---00-00-00-00--0—-0~----|
B|---00-00-00-00--0—-0~----|
G|---11-11-11-11--1—-1~----|
D|---22-22-22-22--2—-2~----|
A|---22-22-22-22--2—-2~----|
E|-------------------------|


Song Order:
Intro
  Intro pt.2
Verse
Verse pt. 2
Pre-Chorus
Chorus
Intro pt.2
Verse
Verse pt.2
Pre-Chorus
Chorus X2
Bridge
Break Down
Chorus X2
End.


| /  slide up
| \  slide down
| h  hammer-on
| p  pull-off
| ~  vibrato

| +  harmonic
| x  Mute note
===============================================================================
Добавлено: 22.07.2012
Другие материалы по этой песне:
  • Аккорды и текст

Страница создана 22.07.2012
http://primanota.ru/ace-enders-and-a-million-different-people/red-eye-chords.htm
Привет, Гость.
Предлагаем пройти революционный курс по гитаре.
Подарок от PrimaNota.Ru, забирай!