PrimaNota.ru - самый крупный в мире бесплатный архив песенных текстов, аккордов, табулатур и нот


Ace Enders And A Million Different People - Cant Run Away - таба, видео

Регистрация Запомнить меня
Войти через:  Facebook Google Twitter Vk Yandex Mail.ru

Ace Enders And A Million Different People - Cant Run Away - таба, видео

Печатать
Просмотров: 102
Band: Ace Enders And A Million Different People
Song: Can't Run Away
Album: When I Hit The Ground
Tabbed By: Matthew Florio; myspace.com/mattflorio2
Email: shempashland@yahoo.com

This is the final song on Ace Ender's new album, "When I Hit The Ground". 
I actually am going to try and tab the entire album and post it. 
I do think that this tab is very close to the real way that it is played. 
I tried to make it closer to a one person player tab, but added certain lead parts or fills. 
Please play along with the song to hear the rhythms on certain chords (ie: Intro & Verses). 
Feel free to contact me if you have any questions or comments.

Tuning: Standard

Chords
Bm    x244xx  x20230
C#maj x466xx
D     x577xx  xx0232
Dsus7 xx0230
E     0777xx
G     3x0230
Asus  x02230

Intro/Verse
Guitar 1
Comes in half way through the Intro
e-------------------------------------------------------------------10/7-|
b---------------------------------------------10/12----------------------|
g------------------------------------------------------------------------|
d---9/11-----------------------------------------------------------------|
a------------------------12/9--------------------------------------------|
e------------------------------------------------------------------------|
    0:05                 0:11                  0:16                  0:22
*Guitar 1 does a few more of these slide type notes through out the verses but 
are hard to hear

Guitar 2 
(I have you a few options on how to play these chords and parts) 
way 1
e----------------------------------|
b----------------------------------|
g-----7-----7-----7----*7----------|
d-----7-----7-----7----*7----------|
a-----x-----x-----5----*7----------|
e-----7-----9----------*0----------|
*** This chord is optional depending on how you hear the song, in this case 
replace with the third chord

way 2
e------------------------------------|
b------------------------------------|
g-----7----7----7----*7--------------|
d-----7----7----7----*7--------------|
a-----x----4----5----*7--------------|
e-----7--------------*0--------------|
***chord still optional, the second chord is the same as the second in way 1

Prechorus
e---------------------------------------------|
b---------------------------------------------|
g-----------7---------------------------------|
d-----------7---------------------------------|
a-----------7---------------------------------|
e-----------0---------------------------------|
"from giving it up..."

Chorus
*Dsus7 chord could also be a D chord
e-------0----0----0----0-----------------|
b-------3----3----3----3-----------------|
g-------2----2----2----2-----------------|
d-------0----2----0----0-----------------|
a------------0----2----x-----------------|
e----------------------3-----------------|

e--------2----0----0---------------------|
b--------3----3----3---------------------|
g--------2----2----2---------------------|
d--------0----2----0---------------------|
a-------------0----x---------------------|
e------------------3---------------------|
"Can't run away from the pain, I will follow"

Bridge
e---------------------------------------------------|
b---------------------------------------------------|
g------7----7----7----7-----9------14--16---18--19--|
d------7----7----7----7-----9------x----x----x---x--|
a------x----x----5----7-----7------12--14---16--17--|
e------7----9---------0-----------------------------|

Interlude
Guitar 1
Use a delay (this is the part after the bridge)
e-------------------------------------------|
b-------------------------------------------|
g------14-----------------------------------|
d-------------14----16----12----------------|
a-------------------------------------------|
e-------------------------------------------|

Guitar 2
e------------------------------------------|
b------------------------------------------|
g---------7-----7-----7--------------------|
d---------7-----7-----7-----5--------------|
a---------5-----x-----x-----5--------------|
e---------------5-----7-----3--------------|

Outro (continued to fade)
(heard at the end)
e------------5--------5------5-----|
b------------3--------3------3-----|
g----2--2--2-----2--2---2--2-------|
d----0-----0-----0------0----------|
a----------------------------------|
e----------------------------------|
Добавлено: 12.06.2012
Другие материалы по этой песне:
  • Аккорды и текст

Страница создана 12.06.2012
http://primanota.ru/ace-enders-and-a-million-different-people/cant-run-away-chords.htm
Привет, Гость.
Предлагаем пройти революционный курс по гитаре.
Подарок от PrimaNota.Ru, забирай!