PrimaNota.ru - самый крупный в мире бесплатный архив песенных текстов, аккордов, табулатур и нот


Acda En De Munnik - Noem Me Oud Verdriet - аккорды и текст, видео

Регистрация Запомнить меня
Войти через:  Facebook Google Twitter Vk Yandex Mail.ru

Acda En De Munnik - Noem Me Oud Verdriet - аккорды и текст, видео

Печатать
Просмотров: 148
Noem Me Oud Verdriet
Acda En De Munnik
Tab door: A. de Bruin

AKKOORDEN:
---------------
      (EADGBe)
E    = 022100
G    = 320003
D    = xx0232
C    = x32010
Am   = x02210
D/F# = 2x0232
Em   = 022000
Aadd9= X02200
C = X32013
C7M  = X32000

MAAT: 4/4

NB: De intro word gespeeld op een 12-snarige gitaar. Daarnaast
    speelt er nog een andere akoestisch gitaar mee.

    Bij de verses word in principe hetzelfde als de intro gespeeld
    met als verschil kleine variaties in de Riff's in 'Am'
===========================================================
[RIFF2 - Wordt bij RIFF1 gevarieerd gespeeld]
   E          G             C       Am
e|----------------------------------------------|-
B|----------------------------------12/15-15\12-|-
G|-------12-14-12/14\12-12/16-16\14-------------|-
D|-12-14----------------------------------------|-
A|----------------------------------------------|-
E|----------------------------------------------|-
   E           G           C        Am
e|---------------------------------------------|-
B|---------------------------------------------|-
G|-------12---12/14\12-12/16\14----------------|-
D|--12-14--------------------------------------|-
A|---------------------------------------------|-
E|---------------------------------------------|-



[INTRO] - RIFF1
  E          G           C         Am  
e|---------------------|--------------------------------|-
B|------0---------0----|------1---------0h1p0------0h1--|-
G|---1----1---------0--|--------0----2--------2---------|-
D|-2-----------0-------|--2---------------------2-------|-
A|---------------------|-3---------0--------------------|-
E|-----------3---------|--------------------------------|-

  E          G           C         Am  
e|---------------------|----------------------------------|-
B|------0---------0----|------1---------------------------|-
G|---1----1---------0--|--------0-------0-----0-----0-2-0-|-
D|-2-----------0-------|--2---------0h2---0h2---0h2-------|-
A|---------------------|-3--------------------------------|-
E|-----------3---------|----------------------------------|-

  E          G           C         Am  
e|---------------------|--------------------------------|-
B|------0---------0----|------1---------0h1p0------0h1--|-
G|---1----1---------0--|--------0----2--------2---------|-
D|-2-----------0-------|--2---------------------2-------|-
A|---------------------|-3---------0--------------------|-
E|-----------3---------|--------------------------------|-

  E          G           C         Am  
e|---------------------|---------------------------------|-
B|------0---------0----|------1--------------------------|-
G|---1----1---------0--|--------0---1/2p0----------------|-
D|-2-----------0-------|--2---------------2---2-0-2------|-
A|---------------------|-3---------------------(0)-------|-
E|-----------3---------|---------------------------------|-


[VERSE]
   E          G
Ik kom pas als je liggen gaat
C             Am
Je klaar bent voor de nacht
   E              G
Ik kom in beelden in fragmenten
C              D
Hard ineens en onverwacht

E                 G
Ik kom terwijl je uit het raam kijkt
C          Am
Van je favoriet cafe
   E           G             Am
Ik zal er zijn zodra je even denkt
          C7M  
Ik heb er vrede mee

| E  G | Aadd9 || E  G | D  Aadd9 |

Am          D           G
Als je eens rustig over zee kijkt
      C                 D
En je denkt hier heb ik rust
         G     D/F#    Em
heb ik je onverwachts en zachtjes
   Am
Keihard op je ziel gekust

[REFREIN]
   E        G      D       
Je noemt me oud verdriet
    C
Doe wat je wil
   E        G      D       
Je noemt me oud verdriet
    C
Doe wat je wil
   E        G      D       
Je noemt me oud verdriet
    C
Doe wat je wil
   D         C           E
Maar zo vreselijk oud ben ik nog niet

| E G | C Am | E  G  | C  Am | (1ste 4 maten RIFF1)

   E                 G
Ik kom, het liefste als je luistert
C             Am
naar een onverwacht mooi lied
   E               G
Ik kom pas kijken, weken, maanden
C            D
Na het echte groot verdriet

   E              G
Ik schuil in weggestopte foto's 
C                   Am
Iets wat je vindt onder de bank
   E                G
En echt ik ben niet te verdrinken
Am                        C7M  
Ik schuil het makkelijkst in drank

| E  G | Aadd9 || E  G | D  Aadd9 |
Nanananananana

Am          D             G
Ik kom soms midden in het lachen
       C           D
Dat zo overgaat in huilen
            G    D/F#     Em
Het zijn precies dezelfde tranen
    Am
Die alleen maar van hun namen ruilen

   E        G      D       
Je noemt me oud verdriet
    C
Doe wat je wil
   E        G      D       
Je noemt me oud verdriet
    C
Doe wat je wil
   E        G      D       
Je noemt me oud verdriet
    C
Doe wat je wil
   D         C            E
Zo vreselijk oud ben ik nog niet


| E | D C | E | D C |

E                          D      C
Maar het liefste kom ik 's nachts
E
Als je niet slapen kan
      C7M  
Juist dan, juist dan

| E  G | Aadd9 || E  G | D Dsus4 |
Nanananananana

| E G | Aadd9  | E  G  | D   E |
Nanananananana
Добавлено: 15.07.2015
Другие материалы по этой песне:
  • Аккорды и текст

Страница создана 15.07.2015
http://primanota.ru/acda-en-de-munnik/noem-me-oud-verdriet-chords.htm
Привет, Гость.
Предлагаем пройти революционный курс по гитаре.
Подарок от PrimaNota.Ru, забирай!